Song name
# A B C D E F G H I J K L M N O P Q R S T U V W X Y Z

Jason Aldean - Take A Little Ride tab

Chords for the song are

E  G  D  A  repeat for entire song

Intro

e---------------------------------------------------------------------------|
B--3/5--3-------------------------------------------------------------------|
G---------4--2--0h2--4p0----------------------------------------------------|
D---------------------------------------------------------------------------|
A---------------------------------------------------------------------------|
E---------------------------------------------------------------------------|

Solo

e----------------------------------------------------------------12--12-12--|
B--15/17--15------------------------------------10-10--------8---15b--------|
G-------------14--12--------12h14p12---7h9p7-7--9--9---7h9p7--9-------------|
D---------------------12h14-----------------9-------------------------------|
A---------------------------------------------------------------------------|
E---------------------------------------------------------------------------|

e--12--12-12--12--12-12--12--12-12--12--12-12-12--12-12----------------------|
B--15b--------15b--------15b--------15b-------15b----------------------------|
G----------------------------------------------------------------------------|
D----------------------------------------------------------------------------|
A----------------------------------------------------------------------------|
E----------------------------------------------------------------------------|

Outro
           x3               /
e---------------------------/  ----------------------------------------------|
B--3/5--3-------------------/  -----5-5---5-5-5---5-5---5-5-5----------------|
G---------4--2--0h2p0--4p0--/  --7b-----7b------7b----7b---------------------|
D---------------------------/  ----------------------------------------------|
A---------------------------/  ----------------------------------------------|
E---------------------------/  ----------------------------------------------|
Tap to rate this tab
# A B C D E F G H I J K L M N O P Q R S T U V W X Y Z