Song name
# A B C D E F G H I J K L M N O P Q R S T U V W X Y Z

Jason Aldean - Take A Little Ride tab

Intro: E G D A
e------------------------------------------------------------------------|
B--3/5--3----------------------------------------------------------------|
G---------4--2--0h2--4p0-------------------------------------------------|x4
D------------------------------------------------------------------------|
A------------------------------------------------------------------------|
E------------------------------------------------------------------------|
Verse:  
 E               G               D               A          

e------------------------------------------------------------------|
B------------------------------------------------------------------|
G--9--9----------------------------7--7----------------------------|x3
D--9--9------------5--5------------7--7------------7--7------------|
A--7--7------------5--5------------5--5------------7--7------------|
E------------------7--7----------------------------5--5------------|
   E                G                D                
e--------------------------------------------------|
B--------------------------------------------------|
G--9--9----------------------------7--7------------|
D--9--9------------5--5------------7--7------------|
A--7--7------------5--5------------5--5------------|
E------------------7--7----------------------------|

Chorus

   E                G                D                A
e------------------------------------------------------------------------|
B------------------------------------------------------------------------|
G--9-9-9-9-9-9-9-9-------------------7-7-7-7-7-7-7-7---------------------|x3
D--9-9-9-9-9-9-9-9--5-5-5-5-5-5-5-5--7-7-7-7-7-7-7-7--7-7-7-7-7-7-7-7----|
A--7-7-7-7-7-7-7-7--5-5-5-5-5-5-5-5--5-5-5-5-5-5-5-5--7-7-7-7-7-7-7-7----|
E-------------------7-7-7-7-7-7-7-7-------------------5-5-5-5-5-5-5-5----|
  E                 G               D                 A
e--------------------------------------------------------------------------|
B--------------------------------------------------------------------------|
G--9-9-9-9-9-9-9-9-------------------7-7-7-7-7-7-7-7-----------------------|
D--9-9-9-9-9-9-9-9--5-5-5-5-5-5-5-5--7-7-7-7-7-7-7-7--7--------------------|
A--7-7-7-7-7-7-7-7--5-5-5-5-5-5-5-5--5-5-5-5-5-5-5-5--7--------------------|
E-------------------7-7-7-7-7-7-7-7-------------------5--------------------|

Intro:E G D A
e------------------------------------------------------------------------|
B--3/5--3----------------------------------------------------------------|
G---------4--2--0h2--4p0-------------------------------------------------|x4
D------------------------------------------------------------------------|
A------------------------------------------------------------------------|
E------------------------------------------------------------------------|
Verse 2:
e------------------------------------------------------------------|
B------------------------------------------------------------------|
G--9--9----------------------------7--7----------------------------|x3
D--9--9------------5--5------------7--7------------7--7------------|
A--7--7------------5--5------------5--5------------7--7------------|
E------------------7--7----------------------------5--5------------|
   E                G                D                A
e--------------------------------------------------|
B--------------------------------------------------|
G--9--9----------------------------7--7------------|
D--9--9------------5--5------------7--7------------|
A--7--7------------5--5------------5--5------------|
E------------------7--7----------------------------|

Chorus:
   E                G                D                A
e------------------------------------------------------------------------|
B------------------------------------------------------------------------|
G--9-9-9-9-9-9-9-9-------------------7-7-7-7-7-7-7-7---------------------|x4
D--9-9-9-9-9-9-9-9--5-5-5-5-5-5-5-5--7-7-7-7-7-7-7-7--7-7-7-7-7-7-7-7----|
A--7-7-7-7-7-7-7-7--5-5-5-5-5-5-5-5--5-5-5-5-5-5-5-5--7-7-7-7-7-7-7-7----|
E-------------------7-7-7-7-7-7-7-7-------------------5-5-5-5-5-5-5-5----|

Solo: E G D A

e----------------------------------------------------------------12--12-12-|
B--15/17--15-------------------------------------------------8---15b-------|
G-------------14--12--------12h14p12---7h9p7-7--9--9---7h9p7--9------------|
D---------------------12h14-----------------9------------------------------|
A--------------------------------------------------------------------------|
E--------------------------------------------------------------------------|

e--12--12-12--12--12-12--12--12-12--12--12-12------------------------------|
B--15b--------15b----------------------------------------------------------|
G--------------------------------------------------------------------------|
D--------------------------------------------------------------------------|
A--------------------------------------------------------------------------|
E--------------------------------------------------------------------------|
Outro:

e------------------------------------------------------------------------|
B--3/5--3----------------------------------------------------------------|
G---------4--2--0h2--4p0-------------------------------------------------|x3
D------------------------------------------------------------------------|
A------------------------------------------------------------------------|
E------------------------------------------------------------------------|

e------------------------------------------------|
B-----5-5---5-5-5---5-5-5---5-5-5----------------|
G--7b-----7b------7b------7b---------------------|
D------------------------------------------------|
A------------------------------------------------|
E------------------------------------------------|
Tap to rate this tab
# A B C D E F G H I J K L M N O P Q R S T U V W X Y Z