Song name
# A B C D E F G H I J K L M N O P Q R S T U V W X Y Z

Jason Aldean - My Kinda Party tab

This is my first tab so bare with me.
also this is the ending solo!

 e--------------------------------------------------------------------------------|
B---------------------------------------------------------------------------------|
G-----/17--15--12----/17--15--8---/17--15--10---8h10^12^10--8--10-----------------|
D---------------------------------------------------------------------------------|
A---------------------------------------------------------------------------------|
E---------------------------------------------------------------------------------|

e---------------------------------------------------------------------------------|
B---------------------------------------------------------------------------------|
G---/17--15--12----/17--15--8---/17--15--10---8h10^12^10^12^10^12^10--8---7-------|
D---------------------------------------------------------------------------------|
A---------------------------------------------------------------------------------|
E---------------------------------------------------------------------------------|

e--------------------------------------------|
B--------------------------------------------|
G-----------8---------8----------------------|
D-----8h10------10-------10\-----------------|  x2
A--------------------------------------------|
E--------------------------------------------|


e---------------------------------------------------------------------------------|
B------------------------------------------8-11-12^14^14^14^14^14\----------------|
G ---------8--------------------8-10^12-------------------------------------------|
D---8h10------10---10--10---------------------------------------------------------|
A---------------------------------------------------------------------------------|
E---------------------------------------------------------------------------------|

e---------------------------------------------|
B---------------------------------------------|
G--10^12^10--8--10^12^10--8\------------------|
D---------------------------------------------|
A---------------------------------------------|
E---------------------------------------------|

e---------------------------------------------------------------------------------|
B---------------------------------------------------------------------------------|
G--10^12^10--8--10^12^10--8-------------------------------------------------------|
D---------------------------------------10---8-6-4-------------slow bend----------|
A------------------------------------------------------8-6----2~--8^10------------|
E---------------------------------------------------------------------------------|




e-----11--13--14^16---11--13--14^16---11--13--14^16\9-8--8------------------------|
B---------------------------------------------------------------------------------|
G--------------------------------------------------------------repeat till fade---|
D---------------------------------------------------------------------------------|
A---------------------------------------------------------------------------------|
E---------------------------------------------------------------------------------|

There u have it!
Tap to rate this tab
# A B C D E F G H I J K L M N O P Q R S T U V W X Y Z