Song name
# A B C D E F G H I J K L M N O P Q R S T U V W X Y Z

Jason Aldean - Night Train tab

-------------------------------------------------------------------------------
                             Night Train - Jason Aldean
-------------------------------------------------------------------------------

Tuning:Standard

Acoustic Guitar
Capo on 3rd Fret 
VERSE
D G D G D A G
CHORUS
Bm G D A


INTRO RIFF This Also Sounds Good with Power Chords
Electric Guitar 1
e|---------------------------------------------------------------------------|
B|---------------------------------------------------------------------------|
G|---------------------------------------------------------------------------|
D|---------------------------------------------------------------------------|
A|--5----8---1--------------3/5\3--------------------------------------------|
E|---------------8---1-------------------------------------------------------|

Electric Guitar 2

e|---------------------------------------------------------------------------|
B|---------------------------------------------------------------------------|
G|---------------------------------------------------------------------------|
D|---------------------------------------------------1-----------------------|
A|--------------------------------------------3\2/3--------------------------|
E|---------------------------------------------------------------------------|

VERSE
G1 (You can kind of improvise this part)                    (Last Time Only)
e|---------------------------------------------------------------------------|
B|-------------11------------------------------------------------------------|
G|---------10-----------------------------------------------10101010101010---|
D|------(10)------------------------------------------------10101010101010---|
A|---------------------------------------------------------------------------|
E|---------------------------------------------------------------------------|

G2
e|---------------------------------------------------------------------------|
B|---------------------------------------------------------------------------|
G|---------------------------------------------------------------------------|
D|----------------------------------------------------1----------------------|
A|---------------------------------------------3\2/3-------------------------|
E|---------------------------------------------------------------------------|

CHORUS 1
G1
e|---------------------------------------------------------------------------|
B|---------------------------------------------------------------------------|
G|---7777----3333----7777----3333--------------------------------------------|
D|---7777----3333----7777----3333--------------------------------------------|
A|---5555----1111----5555----1111--------------------------------------------|
E|---------------------------------------------------------------------------|

G2  Bm       G       D       A         
e|---2-------3-------2-------0------------------------------------------------|
B|---3-------3-------3-------0------------------------------------------------|
G|---4-------0-------2-------2------------------------------------------------|
D|---4-------0-------0-------2------------------------------------------------|
A|---2-------2---------------0------------------------------------------------|
E|-----------3----------------------------------------------------------------|

G1
e|---------------------------------------------------------------------------|
B|---------------------------------------------------------------------------|
G|---7777----3333----7777----5555--------------------------------------------|
D|---7777----3333----7777----5555--------------------------------------------|
A|---5555----1111----5555----1111--------------------------------------------|
E|---------------------------------------------------------------------------|

G2  Bm       G       D       A         Last Time Only End on G
e|---2-------3-------2-------0---------3--------------------------------------|
B|---3-------3-------3-------0---------3--------------------------------------|
G|---4-------0-------2-------2---------0--------------------------------------|
D|---4-------0-------0-------2---------0--------------------------------------|
A|---2-------2---------------0---------2--------------------------------------|
E|-----------3-------------------------3--------------------------------------|

Replay VERSE 
CHORUS 2

G1
e|---------------------------------------------------------------------------|
B|---------------------------------------------------------------------------|
G|---7777----3333----7777----3333--------------------------------------------|
D|---7777----3333----7777----3333--------------------------------------------|
A|---5555----1111----5555----1111--------------------------------------------|
E|---------------------------------------------------------------------------|

G2  Bm       G       D       A         
e|---2-------3-------2-------0------------------------------------------------|
B|---3-------3-------3-------0------------------------------------------------|
G|---4-------0-------2-------2------------------------------------------------|
D|---4-------0-------0-------2------------------------------------------------|
A|---2-------2---------------0------------------------------------------------|
E|-----------3----------------------------------------------------------------|

G1
e|---------------------------------------------------------------------------|
B|---------------------------------------------------------------------------|
G|----------------------------5br--------------------------------------------|
D|--------------------------------3v-----------------------------------------|
A|--5----8---1---------------------------------------------------------------|
E|---------------8---1-------------------------------------------------------|

G2  Bm       G       D       A         
e|---2-------3-------2-------0------------------------------------------------|
B|---3-------3-------3-------0------------------------------------------------|
G|---4-------0-------2-------2------------------------------------------------|
D|---4-------0-------0-------2------------------------------------------------|
A|---2-------2---------------0------------------------------------------------|
E|-----------3----------------------------------------------------------------|

G1
e|---------------------------------------------------------------------------|
B|---------------------------------------------------------------------------|
G|---------------------------------------------------------------------------|
D|------------------------3/5\3--33333333------------------------------------|
A|--5----8---1---------------------------------------------------------------|
E|---------------8---1-------------------------------------------------------|

G2  Bm       G       D       A         
e|---2-------3-------2-------0------------------------------------------------|
B|---3-------3-------3-------0------------------------------------------------|
G|---4-------0-------2-------2------------------------------------------------|
D|---4-------0-------0-------2------------------------------------------------|
A|---2-------2---------------0------------------------------------------------|
E|-----------3----------------------------------------------------------------|

Replay Chorus With the First Part Only Played by the Acoustic 
Replay the Second Part Until the End



************************************

| /   slide up
| \   slide down
| h   hammer-on
| p   pull-off
| v   vibrato
| +   harmonic
| x   Mute note
| b   Bend
| pb  Pre-bend
| br  Bend release
| pbr Pre-bend release
| brb Bend release bend

************************************
Tap to rate this tab
 
# A B C D E F G H I J K L M N O P Q R S T U V W X Y Z