Song name
# A B C D E F G H I J K L M N O P Q R S T U V W X Y Z

Jason Aldean - 1994 tab

-1994 - Jason aldrean ----------------------------------------------------------------- 

Tabbed by: ReillyDonnelly

Email:cheesepuffz172@hotmail.com  

  Intro
e|---------------------------------------------------------------|
B|---------------------------------------------------------------|
G|---------------------------------------------------------------|
D|-------------------------------------------------------X2------|
A|---9-9--X-X-X-X-X-X--5/7---7--7--X-X-X-X-X-X-X--7\3------------|
E|---7-7--X-X-x-X-X-X--3/5---5--5--X-X-X-X-X-X-X--5\3------------|

  
  Verse
e|---------------------------------------------------------------|
B|---5-7-5-------------------------------------------------------|
G|--7--------X16-------------------------------------------------|
D|---------------------------------------------------------------|
A|---------------------------------------------------------------|
E|---------------------------------------------------------------|

 CHORUS (same as intro)
e|---------------------------------------------------------------|
B|---------------------------------------------------------------|
G|---------------------------------------------------------------|
D|-------------------------------------------------------X4------|
A|---9-9--X-X-X-X-X-X--5/7---7--7--X-X-X-X-X-X-X--7\3------------|
E|---7-7--X-X-x-X-X-X--3/5---5--5--X-X-X-X-X-X-X--5\3------------|


 Interlude (Joe Joe Joe part)
e|-------15-----------------------15-----------------------------|
B|-17br15--17-15-17-15-19b--17br15--17-15-17-15--------X2--------|
G|---------------------------------------------16b---------------|
D|---------------------------------------------------------------|
A|---------------------------------------------------------------|
E|---------------------------------------------------------------|

  Verse
e|---------------------------------------------------------------|
B|---5-7-5-------------------------------------------------------|
G|--7--------X8--------------------------------------------------|
D|---------------------------------------------------------------|
A|---------------------------------------------------------------|
E|---------------------------------------------------------------|

 CHORUS (same as intro)
e|---------------------------------------------------------------|
B|---------------------------------------------------------------|
G|---------------------------------------------------------------|
D|-------------------------------------------------------X4------|
A|---9-9--X-X-X-X-X-X--5/7---7--7--X-X-X-X-X-X-X--7\3------------|
E|---7-7--X-X-x-X-X-X--3/5---5--5--X-X-X-X-X-X-X--5\3------------|


 Interlude (Joe Joe Joe part)
e|-------15-----------------------15-----------------------------|
B|-17br15--17-15-17-15-19b--17br15--17-15-17-15--------X2--------|
G|---------------------------------------------16b---------------|
D|---------------------------------------------------------------|
A|---------------------------------------------------------------|
E|---------------------------------------------------------------|

For the solo is almost the same as interlude, 
you can just mess around with it

  Outro
e|---------------------------------------------------------------|
B|---------------------------------------------------------------|
G|---------------------------------------------------------------|
D|-------------------------------------------------------X6------|
A|---9-9--X-X-X-X-X-X--5/7---7--7--X-X-X-X-X-X-X--7\3------------|
E|---7-7--X-X-x-X-X-X--3/5---5--5--X-X-X-X-X-X-X--5\3------------|
 
Last time dont slide down 


  BASS (Repeats through the whole song)
G|---------------------------------------------------------------|
D|---------------------------------------------------------------|
A|-7-7---7-3/5-5-5-----------------------------------------------|
E|------------------5-5---5---3--2-------------------------------|

| /  slide up
| \  slide down
| h  hammer-on
| p  pull-off
| ~  vibrato
| +  harmonic
| x  Mute note
Tap to rate this tab
# A B C D E F G H I J K L M N O P Q R S T U V W X Y Z