Song name
# A B C D E F G H I J K L M N O P Q R S T U V W X Y Z

Jason Aldean - Laughed Until We Cried tab

this is the intro as well as the outro to Laughed Until We Cried by Jason Aldean

repeat this 2x
e|---------------------------------------------------------------------------|
B|---------------------------------------------------------------------------|
G|--2--------2------4-----2-----0--------------------------------------------|
D|--0------------------------------------------------------------------------|
A|---------------------------------------------------------------------------|
E|---------------------------------------------------------------------------|

e|---------------------------------------------------------------------------|
B|---------------------------------------------------------------------------|
G|---2---------2------4------2-----------------------------------------------|
D|---0-----------------------------------------------------------------------|
A|---------------------------------------------------------------------------|
E|---------------------------------------------------------------------------|

e|---------------------------------------------------------------------------|
B|---------------------------------------------------------------------------|
G|-----2--------4----5---4----0----------------------------------------------|
D|---------------------------------------------------------------------------|
A|---------------------------------------------------------------------------|
E|---------------------------------------------------------------------------|

e|---------------------------------------------------------------------------|
B|---------------------------------------------------------------------------|
G|----2------4-----5----4----------------------------------------------------|
D|---------------------------2-----------------------------------------------|
A|---------------------------------------------------------------------------|
E|---------------------------------------------------------------------------|
TABBED BY-   floyd-pinkerton
Tap to rate this tab
# A B C D E F G H I J K L M N O P Q R S T U V W X Y Z