Song name
# A B C D E F G H I J K L M N O P Q R S T U V W X Y Z

Jason Aldean - Big Green Tractor tab

-------------------------------------------------------------------------------
                             Big Green Tractor - Jason Aldean
-------------------------------------------------------------------------------
Tabbed by:tyjamo
E-mail:tyjamo@msn.com

Capo 2

Intro:
       D                             A                                 Em
e|----------------------------------------------------------------------|
B|--------------12------------------------------------------------------|
G|-------11brb-------11br---11p9--9h11----11p9--11b--11p9--11p9---------|
D|----9-----------------------------------------------------------11----|
A|----------------------------------------------------------------------|
E|----------------------------------------------------------------------|
                  G
e|---------------------------------|
B|---------------------------------|
G|----------9----------------------|
D|----9h11-------11\14-----11------|
A|---------------------------------|
E|---------------------------------|

 Verse 1:
 D
 She had a shiny litte beamer with the ragtop down
 A
 Sittin in the drive but she wouldnt get out
 Bm
 The dogs were all barking and wagging around
 G                            A
 And i just laughed and said yall get in
 D
 She had on a new dress and she curled her hair
 A
 She was looking too good not to go somewhere
 Bm
 Said what you want to do baby i dont care
 G                                A
 We can go to the show or we can stay out here

 Chorus:
 D
 And I can take you for a ride on my big green tractor
 A
 We can go slow, or make it go faster
 Em
 Down through the woods, and out through the pasture
 G                         A
 Long as i'm with you, it really dont matter
 D
 Climb up in my lap, and drive if you want to
 A
 Girl you know you got, me to hold on to
 Em
 We can go to town, but baby if you'd rather
 G
 I'll take you for a ride on my big green tractor


       D                                A
e|--------------------------------------------------------------------|
B|--------------12-------------------------12\14--12------------------|
G|-------11brb------11br----11p9----9h11----------------13---11---9---|
D|----9---------------------------------------------------------------|
A|--------------------------------------------------------------------|
E|--------------------------------------------------------------------|

 Verse 2:
 D
 Said we can fire it up and i can show you around
 A
 Sit up on that hill and watch the sun go down
 Em
 When the fireflies are dancing and the moon comes out
 G
 We can turn on the lights and head back to the house

 Chorus:
 D
 Or i can take you for a ride on my big green tractor
 A
 We can go slow, or make it go faster
 Em
 Down through the woods, and out through the pasture
 G                        A
 Long as i'm with you, it really dont matter
 D
 Climb up in my lap, and drive if you want to
 A
 Girl you know you got, me to hold on to
 Em
 We can go to town, but baby if you'd rather
 G                               A                     Bm
 I'll take you for a ride on my big green tractor

 Bridge:
                           G
 Just let me dust off the seat
 Bm                           A
 Mmmm put your pretty little arms around me

 Here we go

 Solo:
       D                              A
e|--------------------------------------------------------------------|
B|--------------12----------------------------------------------------|
G|-------11brb-------11br---11p9---9h11-------------------------------|
D|----9---------------------------------------------------------------|
A|--------------------------------------------------------------------|
E|--------------------------------------------------------------------|
                                Bm
e|--------------------------------------------------------------------|
B|------------12------------12br--------------------------------------|
G|----11p9----------11p9-------------11--9----------------------------|
D|---------11------------11-----------------11--9---------------------|
A|------------------------------------------------11--9---------------|
E|--------------------------------------------------------------------|
      G                                  D
e|-----------------------------------------------------------------|
B|-------------------------9-----9--11\13--11--9--11--9--------9---|
G|------------------9--11-----11------------------------11--9------|
D|-----------9--11-------------------------------------------------|
A|----7h9\11-------------------------------------------------------|
E|-----------------------------------------------------------------|

 Outro:
 D
 You can climb up in my lap, and drive if you want to
 A
 Girl you know you got, me to hold on to
 Em
 We can go to town, but baby if you'd rather
 G
 I'll take for a ride on my big green tractor

 Whoa yeah

       D                               A                               Em
e|-----------------------------------------------------------------------|
B|--------------12-------------------------------------------------------|
G|--------11brb------11br---11p9---9h11---11p9--11b--11p9--11p9----------|
D|----9-----------------------------------------------------------11~----|
A|-----------------------------------------------------------------------|
E|-----------------------------------------------------------------------|

                    G
e|--------------------------------|
B|--------------------------------|
G|-----------9--------------------|
D|----9h11--------11\14----11-----|
A|--------------------------------|
E|--------------------------------| x2

************************************

| /   slide up
| \   slide down
| h   hammer-on
| p   pull-off
| ~   vibrato
| +   harmonic
| x   Mute note
| b   Bend
| pb  Pre-bend
| br  Bend release
| pbr Pre-bend release
| brb Bend release bend

************************************
Tap to rate this tab
# A B C D E F G H I J K L M N O P Q R S T U V W X Y Z