Song name
# A B C D E F G H I J K L M N O P Q R S T U V W X Y Z

Jason Aldean - Hick Town tab

this is a great song for begginners this is my first full tab
drop c sharp tuning

Intro

this is the riff
e----------------------------------------------------------------------------|
b----------------------------------------------------------------------------|
g----------------------------------------------------------------------------|
d----------2-4-2-------------------------------------------------------------|
a-----2-4--------4------2-4--------------------------------------------------|
c#-00--------------00-------3-5----------------------------------------------|

Verses

e-----------------------------------------------------------------------------|
b-----------------------------------------------------------------------------|
g-----------------------------------------------------------------------------|
d-----------------------------------------------------------------------------|
a-----------------------------------------------------------------------------|
c#--0-0-0-0-0-0-0-0-0-0-0-0-0-0------3-5--------------------------------------|
P.M{--------------------------------------------------------------------------|

(repeat riff)


Chorus

e----------------------------------------------------------------------------|
b----------------------------------------------------------------------------|
g----------------------------------------------------------------------------|
d----------------------------------------------------------------------------|
a----------------------------------------------------------------------------|
c#-0-3-4-5-----------------------------0--3--4--5----------------------------|
  we let it rip   when we get the money, let it rule, when we got the gas

e-----------------------------------------------------------------------------|
b-----------------------------------------------------------------------------|
g-----------------------------------------------------------------------------|
d-----------------------------------------------------------------------------|
a-----------------------------------------------------------------------------|
e-0--3--4--5-----------------------------7-5-4-3-0----------------------------|
it gets wild                thats the way we get dooooownnnn in a hicktown


(repeat riff 2 times

on the second time play this

e------------------------------------8-8-------------------------------------|
b------------------------------------8-8-------------------------------------|
g----------------------------------------------------------------------------|
d-----------2-4-2------------------------------------------------------------|
a------2-4-----------2--4----------------------------------------------------|
c#-00-------------00---------------------------------------------------------|


for the violin solo make up something in the key of C#


outro

e-----------------------------------------------------------------------------|
b-----------------------------------------------------------------------------|
g-----------------------------------------------------------------------------|
d-----------------------------------------------------------------------------|
a-----------------------------------------------------------------------------|
c#-0--3--4--5B----------------------------------------------------------------|

the end
Tap to rate this tab
 
# A B C D E F G H I J K L M N O P Q R S T U V W X Y Z