Song name
# A B C D E F G H I J K L M N O P Q R S T U V W X Y Z

Jason Castro - Thats What Im Here For tab

Here are the little solos that are played in That's What I'm Here For. I was playing off 
suckfish's chord charts and I really wanted to play the solos, so I picked them out. 
relatively sure they're correct, but if something's wrong, feel free to correct me. Enjoy!

Tuning: Standard
Capo: 5th fret

I made the tabs relative to the capo, this is my first tab I've ever written, so gimme a 
(so 8 is really 13th fret on the guitar)

after the first chorus, play
-------------------------------------|
-------------------------------------|
-------------------------------------|
-8/10-9-7-5-2-3-8/10-9-5-2-3/5-2-0---|
-------------------------------------|
-----------------------------------3-|

then after the second chorus and breakdown, play
-6/8-7/-3-0-1-6/8-7-3/0-0-0/3-0-----|
--------------------------------3---|
----------------------------------0-|
------------------------------------|
------------------------------------|
------------------------------------|
Tap to rate this tab
# A B C D E F G H I J K L M N O P Q R S T U V W X Y Z