Song name
# A B C D E F G H I J K L M N O P Q R S T U V W X Y Z

Jason Castro - Hallelujah tab

Hallelujah - Jason Castro
Tabbed by Rsimpson222
   

   C                Am                C                  Am
e----------------------------------------------------------------------|
B-----------1----------------1-------------------1--------------1------|
G--------0-----0----------2-----2-------------0-----0---------2----0---| x3
D-----2----------------2-----------------0/2---------------2-----------|
A-2-3-------------2--0--------------2--3---------------2--0------------|
E----------------------------------------------------------------------|
 I heard there...
 Your faith was...
 Baby I've been... 

   F               G*         C      G
e----------------------------------------------------------|
B-------1-----1-----------------1-----------0--------------|
G-----2---2-----2-------4-----0---0-------0---0------------|
D---3-------3-----3---5-----2-------0---0-------0----------|
A-------------------------3--------------------------------|
E-1-----------------3-----------------3--------------------|
But you don't.......music do ya
Her beauty...........Overthrough ya
I-I used to.........Before i knew ya 
  C         F      G*     Am          F       G*         Em        Am
e----------------------------------------------------------------------|
B-------1----------------------1-----------1-------3-----------0-------|
G-----0---0------2-----4-----2---2-------2-------4---4-------0---0-----|
D---2---------3------5-----2-------2---3-------5-------5---2---------2-|
A-3----------------------0-----------------------------------------0---|
E-----------1------3-----------------1-------3-----------0-------------|
Well it goes like this, the fourth...                        Hallelujah
She tied you to her kitchen chair...
I've seen your flag on the marble...

           
            Asus2
e----------0-----------------------------------------------------------|
B---1------0-----------------------------------------------------------|
G-2---2----2-----------------------------------------------------------|
D-------2--2-----------------------------------------------------------|
A----------0-----------------------------------------------------------|
E----------------------------------------------------------------------|
  
  Chorus

      F                    Am         Asus2   F              C       G
e-------------------------------------------------------1--------------|
B-------1-----1-----1------------1------0---------1--------------1-----|
G-----2---2-----2-----2--------2---2------------2---2----------0---0---|
D---3-------3-----3-----3----2--------2-------3-------3------2-------0-|
A--------------------------0-------------------------------3-----------|
E-1-----------------------------------------1--------------------------|
Hallelujah.....

   G
e-------------------------------------------------------|
B-------0-----------------------------------------------|
G-----0---0---------------------------------------------|
D---0-------0-------------------------------------------|
A-------------------------------------------------------|
E-3-----------------------------------------------------|
Repeat first line                          
                           e-3|
   G* is played like this. B-3|
                           G-4|
                           D-5|
                           A-5| 
                           E-3|
                         
Tap to rate this tab
# A B C D E F G H I J K L M N O P Q R S T U V W X Y Z