Song name
# A B C D E F G H I J K L M N O P Q R S T U V W X Y Z

Jason Chen - Burns tab

Intro tab for Burns by Jason Chen
Not sure if this is the official one but this is what I hear.
The chords are just variations of:
Cadd9 (x32030)
D (xx0232)
Em7 (022033)

NOTE: The "r"'s mean to let the note ring. ("R"'s mean to let it ring longer than a 
regular "r")

Capo 5

E|--------------0r-----------0r--2r-----------2r--3r--0R--|
B|-----------3r-----------3-------------------------------|
G|--------0-----------2-------------------0---------------|
D|-----2-----------0-------------------2------------------|
A|--3-------------------------------2---------------------|
E|--------------------------------------------------------|


E|--0--2--3--2--0-----|
B|-----------------3--|
G|--------------------|
D|--------------------|
A|--------------------|
E|--------------------| repeat throughout the song

You can also just strum Cadd9, D, and Em7 throughout the song.

Hope this helps.
Tap to rate this tab
# A B C D E F G H I J K L M N O P Q R S T U V W X Y Z