Song name
# A B C D E F G H I J K L M N O P Q R S T U V W X Y Z

Jason Chen - Best Friend tab

-------------------------------------------------------------------------------
                             BEST FRIEND - JASCON CHEN
-------------------------------------------------------------------------------
Tabbed by: Nichi kira a.k.a Darkheroic
E-mail: darkheroic.deviantart.com - nickorafael@y7mail.com

Tuning: Standard 

Hey this is my very 1st tab, I just want to help, this is base on my own ears. 
leave a comment! Enjoy

INTRO: C G Am Em F G 
     

e|--0---3----3----0----------------|
B|--1-1---3----1----0-----1---1/3--|
G|---------0---2-2----0---2---2/4--| 
D|---------------------------------| 
A|--3-----2----0----2-----3---3/5--|
E|---------------------------------|


************************************

| /   slide up
| \   slide down
| h   hammer-on
| p   pull-off
| ~   vibrato
| +   harmonic
| x   Mute note
| b   Bend
| pb  Pre-bend
| br  Bend release
| pbr Pre-bend release
| brb Bend release bend

************************************
Tap to rate this tab
# A B C D E F G H I J K L M N O P Q R S T U V W X Y Z