Guitaretab - guitar tabs
Song name
# A B C D E F G H I J K L M N O P Q R S T U V W X Y Z

Jason Collett - Roll On Oblivion tab

intro/verse
e-----------------------|
b-----------------------|
g-----------------------|
d-----------2-----2-----|
a-------2h4---2h4-------|
E---0-0-----------------|

e-----------------------|
b-----------------------|
g------------2-----2----|
d--------2h4---2h4------|
a---0-0-----------------|
E-----------------------|
[ Tab from: http://www.guitaretab.com/j/jason-collett/110705.html ]
e-----------------------|
b-----------------------|
g-----------------------|
d-----------2-----2-----|
a-------2h4---2h4-------|
E---0-0-----------------|
    Bridge                              lead guitar
e---4-------------------  ----5-7p5h7----5-7p5-7/9--9--/5-----|
b---5---5---------------  ----5-7p5h7----5-7p5-7/9----9/5-----|
g---6---6----1----------  ------------------------------------|
d---6---7----2----------  ------------------------------------|
a---4---7----2----------  ------------------------------------|
E-------5----0----------  ------------------------------------|

e-----------------------|
b-----------------------|
g-----------------------|
d-----------2-----2-----|
a-------2h4---2h4-------|
E---0-0-----------------|

e-----------------------|
b--7--5-----------------|
g--7--6---1-------------|
d--9--7---2-------------|
a--9--7---2-------------|
E--7--5---0-------------|
                    lead guitar
e--------------------------------------------------------------|
b---7---9---7--12/9--5----7--9-9h10p9-7-7----------------------|
g--9---9---9----------4--9--9----------9--9/6-6/4-4/2----------|
d-9---7---9-------------9--7-------------------------2---------|
a-----------------------------------------------------2/4/2----|
E----------------------------------------------------------0---|
Related for Roll On Oblivion tab