Song name
# A B C D E F G H I J K L M N O P Q R S T U V W X Y Z

Jason Collett - Almost Summer tab

Title   Almost Summer
Artist  Jason Collett

Riff A
e ----------------------|
B ----1----1------------|
G ---0-0--0-0---2----0--|
D -------------3-3--0-0-|
A --3----3--------------|
E ------------1----3----|

Riff B
e ----0---(0)*----------|     *Note is included during the break
B ----1----1------------|
G ---2-2--2-2---2----0--|
D -------------3-3--0-0-|
A --0----0--------------|
E ------------1----3----|

Riff C
e ------------------------|
B -----3^-3-1-------------|    ^= bend
G ----0------2----2----0--|
D ---2-----------3-3--0-0-|
A --3---------------------|
E --------------1----3----|

Riff A (x6)
Lemon gin, cornfields plowed under
cigarettes, southern comfort
with your friends behind the bleachers
tonight theres a dance  He's gonna be there, in the
high school gym  And it's almost summer, almost
warm enough to swim, backyards are waiting

Riff B (x2)
He's got your name, he's got your number
He's got your name, he's got your number

Riff C (x1)

Riff A (x3)
The sun sets across the parking lot walking
cool with your friends, before the rent-a-cops even
know your innocent  The night is waiting

Riff C (x1)

Riff B (x2)
Here he comes, you're a little nervous
Here he comes, but you're getting up the courage yeah

Riff C (x1)

Riff B (x2) [*Break]
The music sucks but he's your salvation
Cherry lip gloss, you know what he's tasting yeah

Riff C (x2)
Yeah yeah yeah

Riff A (x7)
You're in his car getting high, pair of fuzzy dice by the
dashboard light  Supertoke gets
smoke in his eyes  Your head is swimming
with the anticipation and
suddenly you're puking out the door with your
pants around your knees, but he's a nice boy so he
drops you on your street  You can't believe it

Riff C (x1)
Looks like you blew it

Riff B (x2)
He's got your name, he's got your number
He's driving away, oh what a bummer yeah

Riff C (x3)
Yeah yeah yeah
Yeah yeah yeah

Riff A (x3)
So you stumble home but you don't quite make it, you
wake up on the lawn of your next neighbours
The sun is warm

Riff C (x8)
It's almost summer yeah (x8)
Tap to rate this tab
# A B C D E F G H I J K L M N O P Q R S T U V W X Y Z