Song name
# A B C D E F G H I J K L M N O P Q R S T U V W X Y Z

Jason Derulo - In My Head tab

 -- Jason DeRulo  In My Head --

standard tuning EADGBE

tabbed by x-tasha-x

Hey this song is the same all the way through =D
                                          
Intro:
     Bm   G    D    A
E||---------------------|  
B||---------------------|  
G||-4444------7777------|x2
D||-4444-5555-7777-7777-|  
A||-2222-5555-5555-7777-|  
E||------3333------5555-|  


Verse:
Everybody's looking for love...
     Bm   G    D    A
E||---------------------|  
B||---------------------|  
G||-4444------7777------|x4
D||-4444-5555-7777-7777-|  
A||-2222-5555-5555-7777-|  
E||------3333------5555-|  


Pre Chorus:
Just leave with me now...
     Bm   G    D    A
E||---------------------|  
B||---------------------|  
G||-4444------7777------|x4
D||-4444-5555-7777-7777-|  
A||-2222-5555-5555-7777-|  
E||------3333------5555-|  


Chorus:
In My Head, I see you...
     Bm   G    D    A
E||---------------------|  
B||---------------------|  
G||-4444------7777------|x4
D||-4444-5555-7777-7777-|  
A||-2222-5555-5555-7777-|  
E||------3333------5555-|  


Pre Verse 2:
     Bm   G    D    A
E||---------------------|  
B||---------------------|  
G||-4444------7777------|x2
D||-4444-5555-7777-7777-|  
A||-2222-5555-5555-7777-|  
E||------3333------5555-|

  
Verse 2:
Some dudes know all the right..
     Bm   G    D    A
E||---------------------|  
B||---------------------|  
G||-4444------7777------|x4
D||-4444-5555-7777-7777-|  
A||-2222-5555-5555-7777-|  
E||------3333------5555-|  


PRE CHORUS

CHORUS

Bridge:
Break it down, ay oh, ay oh...
    Bm   G    D    A        Bm    G    D
E||---------------------|  |---------------------|  
B||---------------------|  |---------------------|  
G||-4~--------7~--------|x3|-4~--------7~--------|
D||-4~---5~---7~---7~---|  |-4~---5~---7~--------|
A||-2~---5~---5~---7~---|  |-2~---5~---5~--------|
E||------3~--------5~---|  |------3~-------------| 


Pre Chorus:
Just leave with me now...
     Bm   G    D    A
E||---------------------|  
B||---------------------|  
G||-4444------7777------|x4
D||-4444-5555-7777-7777-|  
A||-2222-5555-5555-7777-|  
E||------3333------5555-|  


End with Chorus:
In My Head, I see you...
     Bm   G    D    A
E||---------------------|  
B||---------------------|  
G||-4444------7777------|x8
D||-4444-5555-7777-7777-|  
A||-2222-5555-5555-7777-|  
E||------3333------5555-|  
Tap to rate this tab
# A B C D E F G H I J K L M N O P Q R S T U V W X Y Z