Jason Derulo - Ridin tab

-------------------------------------------------------------------------------
			  Ridin' Solo - Jason Derulo
-------------------------------------------------------------------------------
Tabbed by: Alex Chadwick
Email: ac_7@hotmail.co.uk

Tuning: Standard

The intro can be played in 2 ways.
Either the original Bittersweet Symphony way:

e|-7---7---------------10----10----9----9--|
B|---9---9-10-7-10--------10---------10----|
G|-----------------------------------------|
D|-----------------------------------------|
A|-----------------------------------------|
E|-----------------------------------------|


Or a way which matches the chords:

e|-7---7-----------------------------------|
B|---9---9-10-7-10-----10-7-10-----9---9---|
G|-----------------------------------9-----|
D|-----------------------------------------|
A|-----------------------------------------|
E|-----------------------------------------|

-------------------------------------------------------------------------------
-------------------------------------------------------------------------------

The whole song follows the following pattern:


    E                           Bm
I'm feeling like a star, you can't stop my shine,

    D                         A
I'm loving cloud nine, my head's in the sky,

    E                Bm
I'm solo, I'm riding solo,

           D               A
I'm riding solo, I'm ridin solo, sooloooo.

-------------------------------------------------------------------------------

Just rinse and repeat! Enjoy :)
Tap to rate this tab
 
# A B C D E F G H I J K L M N O P Q R S T U V W X Y Z