Jason Derulo - What If tab

Tabbed by: Adrian Ladia
Tuning : Standard

        Am             Em              F 
e|-----------------------------------------------------------|
B|--1------1-------0-------0-------1--------1----------------|
G|--2------2-------0-------0-------2--------2----------------|
D|-----2------2------------------------3--------3------------|
A|--------------------2-------2------------------------------|
E|-----------------------------------------------------------|

         C               F               C 
e|-----------------------------------------------------------|
B|---1-------1-------1-------1-------1-------1---------------|
G|---0-------0-------2-------2-------0-------0---------------|
D|-----------------------------------------------------------|
A|-------3-------3--------3------3-------3------3------------|
E|-----------------------------------------------------------|

                 Em
e|-----------------------------------------------------------|
B|---0-------0-------0-------0-------------------------------|
G|---0-------0-------0-------0-------------------------------|
D|-----------------------------------------------------------|
A|-------2-------2-------2-------2---------------------------|
E|-----------------------------------------------------------|

I guess this is the whole song
Tap to rate this tab
 
# A B C D E F G H I J K L M N O P Q R S T U V W X Y Z