Song name
# A B C D E F G H I J K L M N O P Q R S T U V W X Y Z

Jason Derulo - The Other Side chords

Highlighted       Show chord diagrams
Capo 2

  Cadd9     [ch]Em7/B[/ch]     D5      Dsus2   Cmaj7
e|--0--    --x--    --x--    --0--    --0--
H|--3--    --3--    --3--    --3--    --0--
G|--0--    --0--    --2--    --2--    --0--
D|--2--    --2--    --0--    --0--    --2--
A|--3--    --2--    --x--    --x--    --3--
E|--x--    --x--    --x--    --x--    --0--


Intro:
e|---------------------|
H|--3---3---3---3---3--|
G|--0---0---0---0---0--|
D|---------------------|
A|---------------------|
E|---------------------|

Verse:
       Cadd9
In the beginning
        [ch]Em7/B[/ch]      D5       Cadd9
I never thought it would be you
             Cadd9
When we were chillin
        [ch]Em7/B[/ch]  D5    Cadd9
Smiling in the photo booth
           Cadd9
But we got closer (Yeah)
               [ch]Em7/B[/ch]  D5     Cadd9
‘Till you were eating off my spoon
           Cadd9
And coming over
             [ch]Em7/B[/ch] D  Cadd9
And we would talk all afternoon
Tap to rate this tab
 
# A B C D E F G H I J K L M N O P Q R S T U V W X Y Z