Song name
# A B C D E F G H I J K L M N O P Q R S T U V W X Y Z

Jason Derulo - Trumpets tab

What's up guys hope you enjoy this tab and take it easy because this is my first tab ever..
D.R


* let ring
/ slide


e|----------8----7---5*----3--3-----------------------------|
B|--------------------------------5-----------7---7*--------|
G|----------------------------------------------------------|
D|----------------------------------------------------------|
A|----------------------------------------------------------|
E|----------------------------------------------------------|x2

e|----------------------------------------------------------|
B|----------------------------------------------------------|
G|---------5/9-----12--10---5--12---10---9--7-----5/9--5*---|
D|----------------------------------------------------------|
A|----------------------------------------------------------|
E|----------------------------------------------------------|

e|----------------------------------------------------------|
B|----------------------------------------------------------|
G|-----5--5------10--9--5---7*---5--5--7--7--9--7--5---------|
D|----------------------------------------------------------|
A|----------------------------------------------------------|
E|----------------------------------------------------------|

Riff:

e|---8-8----8--------8-8----8--------8-8----8------8-8-10-10|
B|-------10---10---8-----10---10---8-----10---10--8---------|
G|----------------------------------------------------------|
D|----------------------------------------------------------|
A|----------------------------------------------------------|
E|----------------------------------------------------------|

e--12-10-8--------------------------------------------------|
B-----------------------------------------------------------|
G-----------------------------------------------------------|
D-----------------------------------------------------------|
A-----------------------------------------------------------|
E-----------------------------------------------------------|

And so on...

Enjoy ! and leave a vote please :)
Tap to rate this tab
# A B C D E F G H I J K L M N O P Q R S T U V W X Y Z