Song name
# A B C D E F G H I J K L M N O P Q R S T U V W X Y Z

Jason Devore - New Orleans tab

-------------------------------------------------------------------------------
                             New Orleans  Jason Devore
-------------------------------------------------------------------------------
Tabbed by: Aeghas
E-mail:

Tuning: Standard

Palm muted during the intro/verse. Just listen to figure out the strumming patterns

Intro/Verse:

e|-----------------------------------------------------------------------------|
B|-----------------------------------------------------------------------------|
G|-----------------------------------------------------------------------------|
D|----5----2-------------------------------------------------------------------|
A|----5----2-------------------------------------------------------------------|
E|----3----0-------------------------------------------------------------------|

Chorus:

e|------------------------------------------------------------------------------|
B|------------------------------------------------------------------------------|
G|----4----6----1---------------------------------------------------------------|
D|----5----7----2---------------------------------------------------------------|
A|----5----7----2---------------------------------------------------------------|
E|----3----5----0---------------------------------------------------------------|

If I'm not mistaken, that's pretty much the song in it's entirety.


http://jasondevore.com/
************************************

| /   slide up
| \   slide down
| h   hammer-on
| p   pull-off
| ~   vibrato
| +   harmonic
| x   Mute note
| b   Bend
| pb  Pre-bend
| br  Bend release
| pbr Pre-bend release
| brb Bend release bend

************************************
Tap to rate this tab
# A B C D E F G H I J K L M N O P Q R S T U V W X Y Z