Song name
# A B C D E F G H I J K L M N O P Q R S T U V W X Y Z

Jason Gray - I Am New tab

D-A-D-G-A-D tuning.   Capo on 7. 

INTRO:     

|-\--\--\----------\-----------\-\--\-----------\-----\-------|D (beat line)
|-------------------------------------------------------------|A
|-2h-0--2h---------2----------------4/-6/-7--7--4-2---2h-0-2h-|G
|-------4h---------4---2--2hp---------------------------------|D
|------------------------------2-2--2/-4/-5--5--2---5---------|A
|---------------------------------------------------5---------|D
          This is who  we are now. (This line at the very end of song)


VERSES

|---\-----------\---\-------\--------------\---------\-------|
|------------------------------------------------------------|
|---2-----------------------4/---6/---7----2---------2h-0-2h-|
|---------------2--------------------------------------------|
|---------------3-----------2/---4/---5----4----5------------|
|-----------------------------------------------5------------|
    I  won't de-ny,   the worst you could say about  me
Who I thought I was.   And who   I thought I  had to be.


VERSES CONT.

|--------\-------------\-\--------\------------\-----------\------------\-|
|-------------------------------------------------------------------------|
|--------2------------------------4-----6---7--4---6---7---4---6---7------|
|----------------------2--------------------------------------------------|
|----------------------3----------2-----4---5--2---4---5---2---4---5----5-|
|-----------------------------------------------------------------------5-|
     But I'm not  de-fined,by mistakes that I made be-cuz God says of   me.
I had to give them both up.  Cuz nei- ther wer wil-ing to  ev -er  be-leive


CHORUS

|------\-----------\---------\------------\----------\--\-------\--\--|
|---------------------------------------------------------------------|
|------2--------------------------------------------------------------|
|----------------------------2----------------------------------------|
|----------------------------3-----------------------5----------2h-p--|
|----------------------------------------------------5----------2h-p--|
 I am not who  I  was.  I'm  be - ing re-made. I am new.
 I'm  cho-sen and holy. And I'm dearly  loved. I am new.  I am new
AFTER BRIDGE CHORUS
 I am not who  I  was.  I'm  be - ing re-made. I am new.
 I'm dead to the old man.I'm com -ing a- live. I am new.  I am new



BRIDGE
|---------------------------------------------|
|---------------------------------------------|
|---------------------------------------------|
|---------------------------------------------|
|----5------------------------2---------------|
|----5------------------------2---------------|
 To long have I lived in the shadows of shame.

|----------------------------------------------|
|----------------------------------------------|
|--2-------------------------------------------|
|-----------------------------2----------------|
|-----------------------------3----------------|
|----------------------------------------------|
 Believing that there was no way I could change.

|------------------------------------------|
|------------------------------------------|
|---------4---------4--------4----------4--|
|---------4---------4--------4----------4--|
|---------2---------2----------------------|
|------------------------------------------|
 But the one who is making, everything new,

|-------------------------------------2/4---4-2-0----------------------|
|----------------------------------------------------------------------|
|--------------------------------------------------4--/6--/7--------2--|
|----------------------------------------------------------------------|
|---------5---------4----------2-------------------2--/4--/5-----------|
|---------5---------4----------2---------------------------------------|
 doesn't see me the way that I do (2x) SOLO                    I'm not...


ENDING BRIDGE
|-------------------------------------------------------------------------|
|-------------------------------------------------------------------------|
|---2---------------------------------------------------------------------|
|-------------------------------------------------------------------------|
|------------------------------------2------------------------------------|
|-------------------------------------------------------------------------|
Forgiven, beloved. Hid'n in Christ. Made in the image of the giver of life.

|--------------------------------------------------------------------------|
|------------------------------------------------------------------------I-|
|-2----------------------------------------------------------------------N-|
|---------------------2--------2-----------------------------------------T-|
|------------------------------3------2----------------------------------R-|
|------------------------------------------------------------------------O-|
Righteous, & holy. Reborn & remade. Accepted & worthy this is R new name. 

God bless! Joe
Tap to rate this tab
 
# A B C D E F G H I J K L M N O P Q R S T U V W X Y Z