Song name
# A B C D E F G H I J K L M N O P Q R S T U V W X Y Z

Jason Isbell - In A Razor Town tab

Artist: Jason Isbell
Song: In a Razor Town

Capo 3

Verse 1

  C                                G       C                                    x4
e---------------------------------------------------------------------------------|
B-------1-----1~-1---1-1---------------------------1------------------------------|
G-----0-0h2-0-0~-0h2-0-0-0-0-0-0-----0-----------0--------------------------------|
D---2 -------------------2-2-0-0---------0---0h2----------------------------------|
A-3------------------------------3-----2---3--------------------------------------|
E----------------------------------3----------------------------------------------|

In a razor town you take whoever you think you can keep around
And there's an echoed sound that permeates that sidewalk where she shuffles round
It's a big machine, used to be the avenue of changing dreams
And she's a lonely thing, sweeping up the glitter while she pulls the strings

Chorus 1

 Am       G       C               Am      G       C                             x1
e---------------------------------------------------------------------------------|
B-----1---------1---------1-----------1---------1---------1-----------------------|
G-------0-----0---------0---0---0-------0-----0---------0---0---0-----------------|
D---2---------------0h2-------2-----2---------------0h2-------2-------------------|
A-0---------2-----3---------------0---------2-----3-------------------------------|
E---------3-------------------------------3---------------------------------------|

Take a long last look before she turns to stone


 Am       G       C               F               G                          x1
e---------------------------------------------------------------------------------|
B-----1---------1---------1-----------1-------1-----------1-0---------------------|
G-------0-----0---------0---0---0---2---2---2---2---------0-0---------------------|
D---2---------------0h2-------2---3-------3-----------0h2-------------------------|
A-0---------2-----3---------------------------------2-----------------------------|
E---------3---------------------------------------3-------------------------------|

And what the last man took, and what was long long gone


Verse 2

  C                                G       C                                    x4
e---------------------------------------------------------------------------------|
B-------1-----1~-1---1-1---------------------------1------------------------------|
G-----0-0h2-0-0~-0h2-0-0-0-0-0-0-----0-----------0--------------------------------|
D---2 -------------------2-2-0-0---------0---0h2----------------------------------|
A-3------------------------------3-----2---3--------------------------------------|
E----------------------------------3----------------------------------------------|

The way it used to be, I wasn't there to see it working properly
And now it seems to me that both of you were suffering
You know I've heard her say that you're the only reason she's alive today
And I just turned away, thinking maybe she was right

Am        G       C               Am      G       C                             x1
e---------------------------------------------------------------------------------|
B-----1---------1---------1-----------1---------1---------1-----------------------|
G-------0-----0---------0---0---0-------0-----0---------0---0---0-----------------|
D---2---------------0h2-------2-----2---------------0h2-------2-------------------|
A-0---------2-----3---------------0---------2-----3-------------------------------|
E---------3-------------------------------3---------------------------------------|

So say your last goodbyes,  make it short and sweet


 Am       G       C               F               G                           x1
e---------------------------------------------------------------------------------|
B-----1---------1---------1-----------1-------1-----------1-0---------------------|
G-------0-----0---------0---0---0---2---2---2---2---------0-0---------------------|
D---2---------------0h2-------2---3-------3-----------0h2-------------------------|
A-0---------2-----3---------------------------------2-----------------------------|
E---------3---------------------------------------3-------------------------------|

There ain't no way for you to fly with her hanging on your feet

i>Play verse for the break/i>

b>Bridge/b>

F                     C
 Let her go out if she wants to
F                          C
 And if she don't go out yourself
F                         Am
 Don't take sorry for an answer
F                             G
 Unless you really want what's left

b>Verse 3/Outro/b>
  C                                G       C                                    x2
e---------------------------------------------------------------------------------|
B-------1-----1~-1---1-1---------------------------1------------------------------|
G-----0-0h2-0-0~-0h2-0-0-0-0-0-0-----0-----------0--------------------------------|
D---2 -------------------2-2-0-0---------0---0h2----------------------------------|
A-3------------------------------3-----2---3--------------------------------------|
E----------------------------------3----------------------------------------------|

Cause in a razor town the only thing that matters tends to bring you down
And there's no way around, but maybe we can barrel through

  C       G       C                                                             x1
e---------------------------------------------------------------------------------|
B-----------------------------0h1~~~----------------------------------------------|
G-----0---------0---------0-------------------------------------------------------|
D---2 --2-----0-----0h2 2---2-----------------------------------------------------|
A-3---------2-----3---------------------------------------------------------------|
E---------3-----------------------------------------------------------------------|
Tap to rate this tab
 
# A B C D E F G H I J K L M N O P Q R S T U V W X Y Z