Song name
# A B C D E F G H I J K L M N O P Q R S T U V W X Y Z

Jason Lo - Operator The Line Is Dead tab

Tabbed by: Mark James
Email: dj_skyline23@hotmail.com

Tuning: Standard

Riff A. Used in all verses. Starts at 0.28. Light Distortion
e|----6------------6-----------6-----------6---------|
B|-------6-----------6-----------6-----------6-------|
G|---------8-7---------8-7--------8-7----------8-7---|
D|----------------8-----------8-----------8----------|
A|---------------------------------------------------|
E|---------------------------------------------------| X2

Chorus. The strumming you can easily figure out from the song. Distortion.
e|------------------------|
B|------------------------|
G|-------------------8----|
D|----8----5----3----8----|
A|----8----5----3----6----|
E|----6----3----1---------|

Riff B.Same pattern as the chorus. Muted,clean.
e|------------------------|
B|------------------------|
G|------------------------|
D|-------------------8----|
A|----8----5----3----6----|
E|----6----3----1---------|

Riff B. Can be heard in the background in the verse. Clean delay or anything
	for the dreamy effect.
e|-------------------------------|
B|-------11-13-------11-13-------|
G|----10----------10-------15----|
D|-------------------------------|
A|-------------------------------|
E|-------------------------------| X4

Chorus.
Solo. Rhythm guitar still plays the chorus riff.
Another guitar plays this in the background. Repeat as necessary depending if you wanna 
the solo longer
e|----------------------------------------|
B|----11--11--10--10--11--11--10--10------|
G|------10--10--10--10--10--10--10--------|
D|----------------------------------------|
A|----------------------------------------|
E|----------------------------------------|

Lead. Those are 10's
e|----5-6-6-6-6-5-5-101010-6-6-6-6-5-5-----------------------|
B|-----------------------------------------------------------|
G|-----------------------------------------------------------|
D|-----------------------------------------------------------|
A|-----------------------------------------------------------|
E|-----------------------------------------------------------| X2

Riff A with delay

Chorus.


| /  slide up
| \  slide down
| h  hammer-on
| p  pull-off
| ~  vibrato
| +  harmonic
| x  Mute note
===============================================================================
Tap to rate this tab
# A B C D E F G H I J K L M N O P Q R S T U V W X Y Z