Song name
# A B C D E F G H I J K L M N O P Q R S T U V W X Y Z

Jason Lytle - Yours Truly The Commuter chords

Highlighted       Show chord diagrams
Artist: Jason Lytle
Album: Yours Truly, the Commuter
Song: Yours Truly, the Commuter



Standard tuning.

Intro:

E--------------------------------------|
A--------------------------------------|
D--------------------------------------|
G------10-10-10-10-7---10----12---14---|  x2
B--------------------------------------|
e--------------------------------------|

Bass Line:

E-1-1-1-1-1-1-1-1-1-1-1-1-1-1-1-1-1--|
A---------------------------------------------|
D---------------------------------------------|
G---------------------------------------------|  x Infinity
B---------------------------------------------|
e---------------------------------------------|

Melody after "All work and no play might've done me in"

E-----------------------------------|
A-----------------------------------|
D-----------------------------------|
G-----------------------------------|
B------6-------8-------10-----------| x4
e-----------------------------------|

F
The last thing I heard I was left for dead (Yeah?)

Bb                                         F
I could give two shits about what they said

C                 Bb               F
I may be limping, but I'm coming home



F
All work and no play might've done me in


B------6-------8-------10----------- x4


Bb                                          F
But I'm stoked I'm back after where I've been

C                Bb               F
I may be limping, but I'm coming home

F
Ah haaaaa

Bb        F
Ah haaaaa

C                Bb                F
I may be limping, but I'm coming home

F
So take the day off and keep it to yourself

Bb                                  F
Because I don't wanna see anybody else

C                 Bb              F
I may be limping, but I'm coming home

F
Ah haaaaa

Bb        F
Ah haaaaa

C                Bb                F
I may be limping, but I'm coming home

C                Bb                F
I may be limping, but I'm coming home
Tap to rate this tab
# A B C D E F G H I J K L M N O P Q R S T U V W X Y Z