Song name
# A B C D E F G H I J K L M N O P Q R S T U V W X Y Z

Jason Mccoy - I Lie tab

-------------------------------------------------------------------------------
			     Nocturne - "I Lie"
-------------------------------------------------------------------------------
Tabbed by:DecayingSinner
Email:decayingsinner@verizon.net

Tuning: C

Intro / Verse
D|-----------------------------------------------------------------------------|
A|-----------------------------------------------------------------------------|
F|-----------------------------------------------------------------------------|
C|-----------------------------------------------------------------------------|
G|-------------------6--777--2222--------------------6-777-999-----------------|
C|22222222-----------------------2-2-2-2-2-2-2-2-------------------------------|

D|---------------------------------------------------------------------------|
A|---------------------------------------------------------------------------|
F|---------------------------------------------------------------------------|
C|---------------------------------------------------------------------------|
G|------------2--6666--777--------------6--7777---999------------------------|
C|-22222222-------------------22222222---------------------------------------|

Chorus
D|---------------------------------------------------------------------------|
A|---------------------------------------------------------------------------|
F|---------------------------------------------------------------------------|
C|---------------------------------------------------------------------------|
G|--4--44----777--6666----------4--44---777--9999----------------------------|
C|--2--22----555--4444----------2--22---555--7777----------------------------|

D|---------------------------------------------------------------------------|
A|---------------------------------------------------------------------------|
F|---------------------------------------------------------------------------|
C|---------------------------------------------------------------------------|
G|--4--44---11-11-11--10-9-7----------4--44--999---7777----------------------|
C|--2--22---9--9--9---8-7-5-----------2--22--777---5555----------------------|

Bridge:
D|---------------------------------------------------------------------------------------|
A|---------------------------------------------------------------------------------------|
F|---------------------------------------------------------------------------------------|
C|-----7------9-----4--------------------------------------------------------------------|
G|-----7------9-----4--------------------------------------------------------------------|
C|-----5------7-----2-----------------------------------------------------------|--------|

| /  slide up
| \  slide down
| h  hammer-on
| p  pull-off
| ~  vibrato
| +  harmonic
| x  Mute note
===============================================================================
Tap to rate this tab
 
# A B C D E F G H I J K L M N O P Q R S T U V W X Y Z