Guitaretab - guitar tabs
Song name
# A B C D E F G H I J K L M N O P Q R S T U V W X Y Z

Jason Mraz - Live High tab

ARTIST: JASON MRAZ

SONG: LIVE HIGH

ALBUM: WE SING, WE DANCE, WE STEAL THINGS (2008)

Hi Everybody,

This is the first Tab I made. Im pretty sure that its accurate!

Any Corrections?   g_soul@gmx.de

Hope u enjoy it! :)

Intro: (1x)  listen for correct timing


    A            C#m7          Cm7        Bm7         Dm7

------------|--------------|----3--->---2-x-2222--|-----5----|
B-----2-h3p3-|----5------5--|----4--->---3-x-3333--|-----6----|
G-----2------|----4------4--|----3--->---2-x-2222--|-----5----|
D---2--------|--6------6----|----5--->---4-x-4444--|---7------|
A--0---------|-4------4-----|----3--->---2-x-2222--|--5-------|
E------------|--------------|----------------------|----------|

Verse: (4x)


       A             C#m7          Dsus2          Dm7
[ Tab from: http://www.guitaretab.com/j/jason-mraz/103916.html ]
---------------|-------------|--------------|--------------|
B------2----2---|-----5-----5-|-----5-----5--|-----6-----6--|
G------2----2---|-----4-----4-|-----7-----7--|-----5-----5--|
D----2----2-----|---6-----6---|---7-----7----|---7-----7----|
A---0----0------|--4-----4----|--5-----5-----|--5-----5-----|
E---------------|-------------|--------------|--------------|


Chorus: (2x) (listen to strumming) play it funky style! ;-)


     A            C#m7       Cm7      Bm7          Dm7

--0-x-0000--|--4-x-4444--|---3-->--2-x-2222--|--5-x-5555-----|
B--2-x-2222--|--5-x-5555--|---4-->--3-x-3333--|--6-x-6666-----|
G--2-x-2222--|--4-x-4444--|---3-->--2-x-2222--|--5-x-5555-----|
D--2-x-2222--|--6-x-6666--|---5-->--4-x-4444--|--7-x-7777-----|
A--0-x-0000--|--4-x-4444--|---3-->--2-x-2222--|--5-x-5555-----|
E------------|------------|-------------------|---------------|

Bridge: do some picking here, it will sound nice, even though im not sure

        which excact notes he plays. :P


   Dsus2  Dm7  C#m7  Bm7  Dm7
Related for Live High tab