Guitaretab - guitar tabs
Song name
# A B C D E F G H I J K L M N O P Q R S T U V W X Y Z

Jason Mraz - Collapsable Plans tab

Highlighted       Show chord diagrams
Collapsible Plans
Intro
e-------x------------x-------|
B-------x------------x-------|
G-------9------------9-------|
D-------9------------9-------|
A-------7----0------7--------|
E---0-----------0------------|
Verse
e--4------7-----5-----|
B--5------7-----5-----|
G--6------8-----6- ---|
D--6------9-----7-----|
A--4------9-----7-----|
E--x------ 7-----5----|
Pre Chorus (we're more aren't we...)
e---8------ 3-------5------5------0-|
B---8------ 3------5------7------7--|
G---9------ 4------7------7------9--|
D---10-----5------7------6------9---|
A---10-----5------5------5------0---|
E---8------ 3------5------5------0--|
Chorus (so collapse...)
e---5------5----- 3-------3-----5------5-----x-----|
B---5------5------3------3-----5------5-----x------|
G---7------6-----5-------4-----7------6-----9------|
D---7------7-----5-------5-----7------7-----9------|
A---5------7-----3------5-----5------7------7------|
E---x----- -5-----x------3-----x------5-----0------|


Chords in the middle of some verses= G#m7(4x44) A E5

B# G B E5

[ Tab from: http://www.guitaretab.com/j/jason-mraz/108180.html ]
E5
What if these plans are collapsible
why don't we try to be responsible
C#m B A
for the other motherfuckers that were searching for the end of the rainbow
E5
ask me about the impossible
I'll tell you that everything is applaudable
C#m B A
for life is a proscenium stage and we are the stars
C#m B A
and the audience that we captivate is already ours
B# G
and we're more aren't we
D A E5
yes we're more aren't we all we are
D A
so collapse all your plans
C G
like a map in your hands
D A E5
cause it won't take long to burn the motherfucker down
E5
many disaster unnatural
we have the ability it's remarkable
C#m B A
to cycle through the seasons adapting to the reason the waters low
C#m B A
if we listen to the sign of the times when she calls we'll know
B# G
and we're more aren't we
D A E5
yes we're more aren't we all we are
D A
so collapse all your plans
C G
like a map in your hands
D A E5
cause it won't take long to burn the motherfucker down
D A
so goodbye to your plans
C G
and hello to a land
D A E5
where it won't take long to burn the motherfucker down
B# G
move your feet when you pray child
B E5
are you ready to change the way that you've been living your life up til now
B# G
the danger is more than a rain cloud
B
will you adhere to the new solution to use less the useless uses of pollution hell yes

Dad A da 's= E5 C#m B A


so collapse all your plans
like a map in your hands
cause it won't be hard to spot the motherfucker down
say goodbye to your plans
and hello to a land
where it won't take long to burn the motherfucker down
say goodbye to your family
and hello to understanding
that it won't take long to burn this mother down
so collapse all your plans
and relax if you can
cause it won't take long to burn this motherfucker down
no it won't take long to burn this mother down
no it won't take long to burn this mother down
no it won't take long to burn this mother down
no it won't take long to burn this mother down
oh to burn her to the ground
no it won't take long to burn this mother down
no it won't take long to burn this mother down
no it won't take long to burn this mother down
no it won't take long to burn this mother down
no it won't take long to burn this mother down
no it won't take long to burn this mother down
no it won't take long to burn this mother down
it won't take long to burn this mother down


Dad A da 's= E5 C#m B A
Related for Collapsable Plans tab
Advertisement will be closed in 10 seconds