Guitaretab - guitar tabs
Song name
# A B C D E F G H I J K L M N O P Q R S T U V W X Y Z

Jason Mraz - Ill Do Anything tab

Iíll Do Anything
Standard Tuning
No Capo

Verse:
e------5-------0-------------------|
B------5-------0-------2-------7---|
G------6-------1-------2-------7---|
D------7-------2-------2-------7---|
A------7-------2-----4-----5-5-----|
E--5-5-5---0-0-0---2---------------|
[ Tab from: http://www.guitaretab.com/j/jason-mraz/134230.html ]
Chorus:
e--5---5---2---1-------|
B--5---5---3---3-------|
G--6---6---2---2-------|
D--7---5---0---0-------|
A--7---7---------------|
E--5---5---------------|

Bridge:
e----------------------------2---1----|
B--2---2---2--(0)------------3---3----|
G--2---2---2---2-------------2---2----|
D--4---3---2---1---2x then---0---0----|
A--4---4---4---2----------------------|
E-------------------------------------|
Related for Ill Do Anything tab