Song name
# A B C D E F G H I J K L M N O P Q R S T U V W X Y Z

Jason Mraz - Remedy tab

-----------------------------------------------------------------------
		The Remedy (acoustic)  Jason Mraz
-----------------------------------------------------------------------
Tabbed by: jocelyn 
Email: jtwl_2004@hotmail.com

Tuning: standard tuning
No capo

Intro:                                                                 
e|--33---66-6-6---66---8--8--8--8---|--10-10---5-5-5-5--6-6--8\---|
B|--33---66-6-6---66---8--8--8--8---|--10-10---5-5-5-5--6-6--8\---|
G|--33---88-8-8---77---101010-10--|--12-12---7-7-7-7--8-8--10\--|
D|--55---88-8-8---88---1010-10-10--|--12-12---7-7-7-7--8-8---10\--| 
A|--55---66-6-6---88---8--8--8--8---|--10-10---5-5-5-5--6-6--8\---|
E|--33---66-6-6---66---8--8--8--8---|--10-10---5-5-5-5--6-6--8\---|
								(fade away)

Ranting Section
e|-----6------6------8---8--8--8-8--|10-10--5-5-5-5--6-6-8--8-8--8-|
B|-----6------6------8---8--8--8-8--|10-10--5-5-5-5--6-6-8-8-8--8-|
G|-----7------8------10--10-10-10-10-|12-12--7-7-7-7--8-8-10-10-10-10|
D|-----8------8------10--10-10-10-10-|12-12--7-7-7-7--8-8-10-10-10-10|
A|-----8--6-6-6------8---8--8--8-8--|10-10--5-5-5-5--6-6-8--8--8--8-|
E|-6-6-6------6--8-8-8---8--8--8-8--|10-10--5-5-5-5--6-6-8--8--8--8-|

e|-----6------6-------8---8--8--8-8--|--10-10--5-5-5-5--6-6--8\-----|
B|-----6------6-------8---8--8--8-8--|--10-10--5-5-5-5--6-6--8\-----|
G|-----7------8-------10--10-10-10-10-|--12-12--7-7-7-7--8-8--10\----|
D|-----8------8-------10--10-10-10-10-|--12-12--7-7-7-7--8-8--10\----|
A|-----8--6-6-6-------8---8--8--8-8--|--10-10--5-5-5-5--6-6--8\-----|
E|-6-6-6------6---8-8-8---8--8--8-8--|--10-10--5-5-5-5--6-6--8\-----|
							       (fade away)


Verse 1(Repeat once)
e|-----3-------3-------1-------1---|-------3-------3-------1----------|
B|-----3-------3-------1-------1---|-------3-------3-------1----------|
G|-----4-------5-------2-------3---|-------4-------5-------2----------|
D|-----5-------5-------3-------3---|-------5-------5-------3----------|
A|-----5---3-3-3-------3---1-1-1---|-0-----5---3-3-3-------3----------|
E|-3-3-3-------3---1-1-1-------1---|---3-3-3-------3-------1----------|
			               		         (mute/slap)


Pre-chorus
e|-----3-------3-------1-------1---|-------3-------3-------1-------1--|
B|-----3-------3-------1-------1---|-------3-------3-------1-------1--|
G|-----4-------5-------2-------3---|-------4-------5-------2-------3--|
D|-----5-------5-------3-------3---|-------5-------5-------3-------3--|
A|-----5---3-3-3-------3---1-1-1---|-0-----5---3-3-3-------3---1-1-1-0|
E|-3-3-3-------3---1-1-1-------1---|---3-3-3-------3---1-1-1-------1--|


e|-----3-------3-------1-------1---|--------3-------3-------1---------|
B|-----3-------3-------1-------1---|--------3-------3-------1---------|
G|-----4-------5-------2-------3---|--------4-------5-------2---------|
D|-----5-------5-------3-------3---|--------5-------5-------3---------|
A|-----5---3-3-3-------3---1-1-1---|--0-----5---3-3-3-------3---------|
E|-3-3-3-------3---1-1-1-------1---|----3-3-3-------3-------1---------|
							   (mute/slap)


Chorus 1(Repeat once)
e|-6-6--6-6-6-6--8--8---8--8--8-8--|-10-10--5-5-5-5--6-6-8--8--8-8-|
B|-6-6--6-6-6-6--8--8---8--8--8-8--|-10-10--5-5-5-5--6-6-8--8-8-8-|
G|-7-7--8-8-8-8--10-10--10-10-10-10-|-12-12--7-7-7-7--8-8-10-10-10-10|
D|-8-8--8-8-8-8--10-10--10-10-10-10-|-12-12--7-7-7-7--8-8-10-10-10-10|
A|-8-8--6-6-6-6--8--8---8--8--8-8--|-10-10--5-5-5-5--6-6-8--8-8-8-|
E|-6-6--6-6-6-6--8--8---8--8--8-8--|-10-10--5-5-5-5--6-6-8--8-8-8-|

e|-6-6--6-6-6-6--8--8---8--8--8-8---|---10-10---5-5-5-5---6-6--8\---|
B|-6-6--6-6-6-6--8--8---8--8--8-8---|---10-10---5-5-5-5---6-6--8\---|
G|-7-7--8-8-8-8--10-10--10-10-10-10--|---12-12---7-7-7-7---8-8--10\--|
D|-8-8--8-8-8-8--10-10--10-10-10-10--|---12-12---7-7-7-7---8-8--10\--|
A|-8-8--6-6-6-6--8--8---8--8--8-8---|---10-10---5-5-5-5---6-6--8\---|
E|-6-6--6-6-6-6--8--8---8--8--8-8---|---10-10---5-5-5-5---6-6--8\---|


Verse 2
e|-----3-------3-------1-------1---|-------3-------3-------1----------|
B|-----3-------3-------1-------1---|-------3-------3-------1----------|
G|-----4-------5-------2-------3---|-------4-------5-------2----------|
D|-----5-------5-------3-------3---|-------5-------5-------3----------|
A|-----5---3-3-3-------3---1-1-1---|-0-----5---3-3-3-------3----------|
E|-3-3-3-------3---1-1-1-------1---|---3-3-3-------3-------1----------|
			               		         (mute/slap)
e|-----3-------3-------1-------1---|-------3-------3--------1---------|
B|-----3-------3-------1-------1---|-------3-------3--------1---------|
G|-----4-------5-------2-------3---|-------4-------5--------2---------|
D|-----5-------5-------3-------3---|-------5-------5--------3---------|
A|-----5---3-3-3-------3---1-1-1---|-0-----5-------3--------3---------|
E|-3-3-3-------3---1-1-1-------1---|---3-3-3-------3--------1---------|
							   (mute/slap)


Pre-chorus
e|-----3-------3-------1-------1---|-------3-------3-------1-------1--|
B|-----3-------3-------1-------1---|-------3-------3-------1-------1--|
G|-----4-------5-------2-------3---|-------4-------5-------2-------3--|
D|-----5-------5-------3-------3---|-------5-------5-------3-------3--|
A|-----5---3-3-3-------3---1-1-1---|-0-----5---3-3-3-------3---1-1-1-0|
E|-3-3-3-------3---1-1-1-------1---|---3-3-3-------3---1-1-1-------1--|


e|-----3-------3-------1-------1---|--------3-------3-------1---------|
B|-----3-------3-------1-------1---|--------3-------3-------1---------|
G|-----4-------5-------2-------3---|--------4-------5-------2---------|
D|-----5-------5-------3-------3---|--------5-------5-------3---------|
A|-----5---3-3-3-------3---1-1-1---|--0-----5---3-3-3-------3---------|
E|-3-3-3-------3---1-1-1-------1---|----3-3-3-------3-------1---------|
							   (mute/slap)

Chorus 2(Repeat once)
e|-6-6--6-6-6-6--8--8---8--8--8-8--|-10-10--5-5-5-5--6-6-8--8--8-8-|
B|-6-6--6-6-6-6--8--8---8--8--8-8--|-10-10--5-5-5-5--6-6-8--8-8-8-|
G|-7-7--8-8-8-8--10-10--10-10-10-10-|-12-12--7-7-7-7--8-8-10-10-10-10|
D|-8-8--8-8-8-8--10-10--10-10-10-10-|-12-12--7-7-7-7--8-8-10-10-10-10|
A|-8-8--6-6-6-6--8--8---8--8--8-8--|-10-10--5-5-5-5--6-6-8--8-8-8-|
E|-6-6--6-6-6-6--8--8---8--8--8-8--|-10-10--5-5-5-5--6-6-8--8-8-8-|

e|-6-6--6-6-6-6--8--8---8--8--8-8--|-10-10--5-5-5-5--6-6-8--8--8-8-|
B|-6-6--6-6-6-6--8--8---8--8--8-8--|-10-10--5-5-5-5--6-6-8--8-8-8-|
G|-7-7--8-8-8-8--10-10--10-10-10-10-|-12-12--7-7-7-7--8-8-10-10-10-10|
D|-8-8--8-8-8-8--10-10--10-10-10-10-|-12-12--7-7-7-7--8-8-10-10-10-10|
A|-8-8--6-6-6-6--8--8---8--8--8-8--|-10-10--5-5-5-5--6-6-8--8-8-8-|
E|-6-6--6-6-6-6--8--8---8--8--8-8--|-10-10--5-5-5-5--6-6-8--8-8-8-|

Bridge
(downstroke 8 times each chord except final chord. final barre downstroke with mute)
e|-10--6--6--8----10--6---6---8---|--10--6--6--8---10---6---6---8-----|
B|-10--6--6--8----10--6---6---8---|--10--6--6--8---10---6---6---8-----|
G|-12--8--7--10---12--8---7---10--|--12--8--7--10--12---8---7---10----|
D|-12--8--8--10---12--8---8---10--|--12--8--8--10--12---8---8---10----|
A|-10--6--8--8----10--6---8---8---|--10--6--8--8---10---6---8---8-----|
E|-10--6--6--8----10--6---6---8---|--10--6--6--8---10---6---6---8-----|

End on 
e|--1~------|
B|--1~------|
G|--3~------|
D|--3~------|
A|--1~------|
E|--1~------|


| /  slide up
| \  slide down
| h  hammer-on
| p  pull-off
| ~  vibrato
| x  Mute or slap

Order of song
|Intro				
|Ranting Section	
|Verse 1_______________________(I saw fireworks from the freeway) 
|Pre-chorus____________________(The remedy is the experience)
|Chorus 1______________________(I wont worry my life away)
|Verse 2_______________________(I heard two men talking on the radio)
|Pre-chorus____________________(The remedy is the experience)
|Chorus 2______________________(I wont worry my life away)
|Bridge________________________(When I fall in love, I take my time)
|Pre-chorus____________________(The remedy is the experience)
|Chorus 2 (Repeat once)________(I wont worry my life away)

=======================================================================
Tap to rate this tab
# A B C D E F G H I J K L M N O P Q R S T U V W X Y Z