Guitaretab - guitar tabs
Song name
# A B C D E F G H I J K L M N O P Q R S T U V W X Y Z

Jason Mraz - Winter Wonderland Live tab

    _____________________________
   /                            /  This is such a sweet Christmas song, so I
  /  Jason Mraz                /  thought I had to transcribe it! ;)
 /  Winter Wonderland  Live  /  This tab is transcribed from this clip:
/____________________________/  www.youtube.com/watch?v=X9H2pSFVAYY


The (x) means to slap the string, which is always done on the beat 4.

[A]Verse:
  Fmaj7               Fmaj7               Fmaj7               Fmaj7
|-------------(x)---|-------------(x)---|-------------(x)---|------------(x)---|
|-----1-----1-(x)---|---1---1---1-(x)---|-----1-----1-(x)---|---1---1--1-(x)---|
|-----2-----2-(x)---|---2---2---2-(x)---|-----2-----2-(x)---|---2---2--2-(x)---|
|-----2-----2-(x)---|---2---2---2-(x)---|-----2-----2-(x)---|---2---2--2-(x)---|
|-------------(x)---|-------------(x)---|-------------(x)---|------------(x)---|
|-1-----0-1---(x)-0-|-1-----1-----(x)-0-|-1-----0-1---(x)-0-|-1-----1----(x)-0-|

  C                   C (B)               C       Bb        Am7   Gm7
|-------------(x)---|-------------(x)---|-----------------|-----------------|
|-----5-----5-(x)---|---4---5---5-(x)---|-----5-------3---|---5---3---3-----|
|-----5-----5-(x)---|---4---5---5-(x)---|-----5-------3---|---5---3---3-----|
|-----5-----5-(x)---|---4---5---5-(x)---|-----5-------3---|---5---3---3-----|
|-3---3-0-3-3-(x)-3-|---2---3---3-(x)-0-|-3---3-0-1---1-0-|-----------------|
|-------------(x)---|-------------(x)---|-----------------|-5-----3-------0-|
[ Tab from: http://www.guitaretab.com/j/jason-mraz/175456.html ]
  Gm7     C         Fmaj7               Fmaj7
|-----------------|-------------(x)---|-------------(x)---|
|-----3-------5---|-----1-----1-(x)---|---1---1---1-(x)---|
|-----3-------5---|-----2-----2-(x)---|---2---2---2-(x)---|
|-----3-------5---|-----2-----2-(x)---|---2---2---2-(x)---|
|-------0-3-------|-------------(x)---|-------------(x)---|
|-3-------------0-|-1-----0-1---(x)-0-|-1-----1-----(x)-0-|



 [B]Bridge:
  A       D         A                   A       D         A
|-----------------|-------------(x)---|-----------------|-------------(x)---|
|-------------7---|-------------(x)---|-------------7---|-------------(x)---|
|-----6-------7---|-----6-----6-(x)---|-----6-------7---|-----6-----6-(x)---|
|-----7-------7---|-----7-----7-(x)---|-----7-------7---|-----7-----7-(x)---|
|-----7---5-----0-|-----7-----7-(x)---|-----7---5-----0-|-----7-----7-(x)---|
|-5---------------|-5-----0-5---(x)-0-|-5---------------|-5-----0-5---(x)-0-|

  C       F         C                     C      G        C7
|-----------------|--------------(x)---|----------------|---------------|
|------------10---|--------------(x)---|----------------|---------------|
|-----9------10---|-----9------9-(x)---|--9------4------|--9------------|
|----10------10---|----10-----10-(x)---|-10------5------|--8------------|
|----10---8---8-0-|----10-----10-(x)---|-10------5------|-10------------|
|-8---------------|-8-----0-8----(x)-0-|--8------3------|--8------------|



 Jingle Bells outro:
  F/C             F/C    Am7
|-------1-------|-1------0------|
|---------1-----|-1------1------|
|-2---------2---|-2------0------|
|-3-------------|-3------2------|
|-3-------------|-3------0------|
|---------------|---------------|


Jon Sebastian Frederiksen  27th /December /08
Just mail me at maitinin@gmail.com with questions, comments and corrections!
Related for Winter Wonderland Live tab