Song name
# A B C D E F G H I J K L M N O P Q R S T U V W X Y Z

Jason Mraz - Running tab

-------------------------------------------------------------------------------
			     Running - Jason Mraz
-------------------------------------------------------------------------------
Tabbed by: Ryan Maas
Email:

I couldnt find this anywhere so I decided to take a try at it. This may not be 100% 
but pretty close.

He sometimes plays this with a capo on 2 or just normal, so whatever you like better.

Tuning:Standard

Verse
e|---5-----------------------------------------------------------------------|
B|---5---4---2\4-------------------------------------------------------------|
G|---6---4---2\4-------------------------------------------------------------|
D|---7---4---2\4-------------------------------------------------------------|
A|---7-----------------------------------------------------------------------|
E|---5---4---2\4-------------------------------------------------------------|


Chorus

e|------------------5--------------------------------------------------------|
B|------4-----2-----5--------------------------------------------------------|
G|--1---4-----2-----6--------------------------------------------------------|
D|--2---4-----2-----7--------------------------------------------------------|
A|--2---------------7--------------------------------------------------------|
E|------4-----2-----5--------------------------------------------------------|

| /  slide up
| \  slide down
| h  hammer-on
| p  pull-off
| ~  vibrato
| +  harmonic
| x  Mute note
====================================================
Tap to rate this tab
# A B C D E F G H I J K L M N O P Q R S T U V W X Y Z