Song name
# A B C D E F G H I J K L M N O P Q R S T U V W X Y Z

Jason Mraz - Stranger In The Sky tab

Stranger In The Sky (Make Believe)
By Jason Mraz
Tabbed by Jon Micetic
Micet052@erau.edu

Intro
e-----------------------------------------|
B----------10-----------------10----------|
G-------10----10-----------10----10-------|
D-----9----------9-------9----------9-----|
A---8--------------8---8--------------8---|
D-0------------------0--------------------|
(repeat a couple times)

e----------------------------------------------------------------|
B-10-10-10----8---------6-6/8---1-1--------8-8-10---6-6----------|
G-10-10-9-----9---------7-7/9---2-2--------9-9-9----7-7---6-7----|
D------------------10----------------3---------------------7-7---|
A----------------------------------------------------------------|
D----------10---10----8--------3-------3-10--------8-----7-------|

Verse
e------------------------------------------|
B----------10------------------------------|
G-------10----10----------------8----------|
D-----9----------9---------9------9----9---|
A---8--------------8----10---10-----10-----|
D-0------------------10--------------------|

e---------------------------------|
B---------6---------------6-------|
G-----7-----7---7-----7-----7-----|
D---8---8-----8-----8---8-----8---|
A---------------------------------|
D-8---------------8---------------|

e---------------------------------|
B---------1---------------1-------|
G-----2-----2---2-----2-----2-----|
D---3---3-----3-----3---3-----3---|
A---------------------------------|
D-3---------------3---------------|

e---------------------------------------|
B-----------8-------------------8-------|
G------9------9----9-------9------9-----|
D---10---10-----10------10---10-----10--|
A---------------------------------------|
D-10-----------------10-----------------|

e---------------------------------|
B---------6---------------6-------|
G-----7-----7---7-----7-----7-----|
D---8---8-----8-----8---8-----8---|
A---------------------------------|
D-8---------------8---------------|

e---------------------------------|
B---------1---------------1-------|
G-----2-----2---2-----2-----2-----|
D---3---3-----3-----3---3-----3---|
A---------------------------------|
D-3---------------3---------------|

e---------------------------------|
B---------0---------------0-------|
G-----1-----1---1-----1-----1-----|
D---2---2-----2-----2---2-----2---|
A---------------------------------|
D-2---------------2---------------|

e---------------------------------|
B---------0---------------0-------|
G-----1-----1---1-----1-----1-----|
D---2---2-----2-----2---2-----2---|
A---------------------------------|
D-2---------------2---------------|

Chorus

e---------------------------------|
B---------1---------------1-------|
G-----2-----2---2-----2-----2-----|
D---3---3-----3-----3---3-----3---|
A---------------------------------|
D-3---------------3---------------|

e---------------------------------|
B---------6---------------6-------|
G-----7-----7---7-----7-----7-----|
D---8---8-----8-----8---8-----8---|
A---------------------------------|
D-8---------------8---------------|
(repeat these two a couple times)

(last time)
e---------------------------------|
B---------0---------------0-------|
G-----1-----1---1-----1-----1-----|
D---2---2-----2-----2---2-----2---|
A---------------------------------|
D-2---------------2---------------|
Tap to rate this tab
 
# A B C D E F G H I J K L M N O P Q R S T U V W X Y Z