Song name
# A B C D E F G H I J K L M N O P Q R S T U V W X Y Z

Jason Mraz - God Rests In Reason tab

Jason Mraz
God Rests in Reason
Tabbed by : Renny Roininen (renny.roininen@hotmail.com
Tuning: Drop D Capo 2

Intro/Verse
e--------0-----------------0---------------|
B----------3-----------------3-------------|
G----0-------0-0-0-----0-------0-0-0-------|
D------4-------4---4-----4-------4---------|
A--------------5-----------------5---------|
D-0------------------0---------------------|

e--------0-----------------0---------------|
B----------3-----------------3-------------|
G----0-------0-0-0-----0-------0-0-0-------|
D------4-------4---4-----4-------4---------|
A--------------5-----------------5---------|
D-5------------------5---------------------|

Chorus back into verse
e---------------------------------------|
B-----0-0-0-0-0-0-0-0-0-0-0-0-0-0-0-0---|
G-----0-0-0-0-0-0-0-0-0-0-0-0-0-0-6-6---|
D-----2-2-2-2-5-5-5-5-2-2-2-2-5-5-7-7---|
A-----2-2-2-2-5-5-5-5-2-2-2-2-5-5-7-7---|
D-5-4-2-2-2-2-5-5-5-5-2-2-2-2-5-5-7-7---|

Bridge back into verse
e-0---0----------0-----------------0-----------|
B-0---0------------3-----------------3---------|
G-1---4------0-------0-0-0-----0-------0-0-0---|
D-2---5--------4-------4---4-----4-------4-----|
A-2---5----------------5-----------------5-----|
D-0---0---0------------------0-----------------|

e-0---0----------0-----------------0-----------|
B-0---0------------3-----------------3---------|
G-1---4------0-------0-0-0-----0-------0-0-0---|
D-2---5--------4-------4---4-----4-------4-----|
A-2---5----------------5-----------------5-----|
D-0---0---0------------------0-----------------|
Tap to rate this tab
 
# A B C D E F G H I J K L M N O P Q R S T U V W X Y Z