Song name
# A B C D E F G H I J K L M N O P Q R S T U V W X Y Z

Jason Mraz - Life Is Wonderful tab

Help us improve GuitareTab! Take a short survey!
Intro: Capo 2nd fret

Hey, This I can assure you is 100 percent correct... I cant stand people that are
tone def and come on here and make tabs that are completely wrong like all the other 
is
tabs that are on here... I've been playing Pianno since I was 4 and now i'm 15 and even 
can pick this out by my ear and trust me I have a good one. This is a pretty easy song
really repetative. I'm working on the chords and I'll tell you more about it at the 
of the page.....

e-----------------------------------------------------------------|
b---------2--------2---------2---------2---------3---------3------|
g---------2--------2---------2---------2---------4---------4------|
d-----------------------------------------------------------------|
a-------------------------------------------0-2-------0-2---------|
e------2-------0-2------0-2-------0-2-----------------------------|

e-----------------------------------------------------------------|
b----------3---------3---------6----------6---------6---------6---|
g----------4---------4---------7----------7---------7---------7---|
d-----------------------------------------------------------------|
a-----0-2-------0-2-------4-5--------4-5-------4-5-------4-5------|
e-----------------------------------------------------------------|

e-----------------------------------------------------------------|
b-----------------------------------------------------------------|
g--------6-----------6---------6-----1-x--------------------------|
d--------7---------7---------7-------2-x--------------------------|
a------------------------------------2-x--------------------------|
e-----5-------5-5-------5-5----------0-x--------------------------|

Verse 2
e-----------------------------------------------------------------|
b---------2--------2---------2---------2---------3---------3------|
g---------2--------2---------2---------2---------4---------4------|
d-----------------------------------------------------------------|
a-------------------------------------------0-2-------0-2---------|
e------2-------0-2------0-2-------0-2-----------------------------|

e-----------------------------------------------------------------|
b----------3---------3---------6----------6---------6---------6---|
g----------4---------4---------7----------7---------7---------7---|
d-----------------------------------------------------------------|
a-----0-2-------0-2-------4-5--------4-5-------4-5-------4-5------|
e-----------------------------------------------------------------|

e---------------------------------------------0-------------------|
b---------------------------------------------0-------------------|
g--------6-----------6---------6----------1---1-------------------|
d--------7---------7---------7----------2-------------------------|
a-------------------------------------2---------------------------|
e-----5-------5-5-------5-5---------0-----------------------------|


The chords are something like this but not exactly but I should have it posted in a
bit.. here they are

A                    E
la la la la la la la life is wonderful
E                    A
la la la la la la la life goes full circles..
A              E
ah la la la da life is wonderful
E
ah la la la laaa...

Thats not completely right and there sounds like there needs to be some chords durign
circles" but its pretty close but the Intro is right... so l8r.. I'll see if I can get the
later
Related for Life Is Wonderful tab