Song name
# A B C D E F G H I J K L M N O P Q R S T U V W X Y Z

Jason Mraz - Rocket Man tab

CAPO 2

Intro/Verse
e---------0-0-0-----0-0-0------------0-0-0-----0-0-0--|
B---------3-3-3-----1-1-1------------3-3-3-----1-1-1--|
G---------0-0-0-----2-2-2------------0-0-0-----2-2-2--|
D---------2-2-2-----2-2-2------------2-2-2-----2-2-2--|
A-0h2---2---2-2-0-0-0-0-0-0--0h2---2---2-2-0-0-0-0-0--|
E-----0-----0-0------------------0-----0-0------------|

e---------3---3-3-----5-5---3---------------5-5--|
B---------1---1-1-----3-3---1---------------3-3--|
G---------0---0-2-----0-0---0---0-----------0-0--|
D-------2-----0-2---4-4-4---2---0-------4---4----|
A-0-2-3-----2-2-0-5---5-5-3-3-2---2h3-5---5------|
E------------------------------------------------|

Chorus
e-----1-1-----1---------3-3-----3------|
B-----0---0-----0-------1---1-----1----|
G-----0-----0-----0-----0-----0-----0--|
D-----0-----------------2--------------|
A-----2-------------3-3-3--------------|
E-3-3-3--------------------------------|

e-----1-1-----1-------3---3---3-3-------3----|
B-----0---0-----0-----1---1---1-1-------1----|
G-----0-----0-----0---0---0---2-2-------0----|
D-----0---------------2---0---2-2-------2----|
A-----2-------------3-3-2-2-0-0-0-0-2-3-3----|
E-3-3-3--------------------------------------|

e-----1-1-----1---------3-3-----3------|
B-----0---0-----0-------1---1-----1----|
G-----0-----0-----0-----0-----0-----0--|
D-----0-----------------2--------------|
A-----2-------------3-3-3--------------|
E-3-3-3--------------------------------|

e-----1-1-----1-----------------------|
B-----0---0-----0---------------------|
G-----0-----0-----0-----0-------------|
D-----0---------------2---0---0---0---|
A-----2-------------3-------2---0-----|
E-3-3-3-------------------------------|
Tap to rate this tab
 
# A B C D E F G H I J K L M N O P Q R S T U V W X Y Z