Song name
# A B C D E F G H I J K L M N O P Q R S T U V W X Y Z

Jason Mraz - Dynamo Of Volition tab

right then this includes live/ unplugged intro so if your goin for the album version 
down to where the lyrics start! :)

TUNING= DROP D

E------------------------------------------------------|
B------------------------------------------------------|
G--77xxx77xxx77xxx-12s11----77xxx77xxx77xxx-12s11---5s9|
D--77xxx77xxx77xxx-12s11----77xxx77xxx77xxx-12s11---5s9|  X2
A--55xxx55xxx55xxx-10s9-----55xxx55xxx55xxx-10s9----3s7|
D--00---00---00-------------00---00---00---------------|

E--77xxx77xxx22xxx00----77xxx77xxx222x333--|
B--77xxx77xxx22xxx00----77xxx77xxx222x333--|
G--77xxx77xxx22xxx00----77xxx77xxx222x444--|
D--77xxx77xxx22xxx44----77xxx77xxx222x555--|
A--99xxx99xxx44xxx55----99xxx99xxx444x555--|
D--99xxx99xxx44xxx55----99xxx99xxx444x333--|

E--77xxx77xxx22xxx00----77xxx77xxx2x2x3--|
B--77xxx77xxx22xxx00----77xxx77xxx2x2x3--|
G--77xxx77xxx22xxx00----77xxx77xxx2x2x4--|
D--77xxx77xxx22xxx44----77xxx77xxx2x2x5--|
A--99xxx99xxx44xxx55----99xxx99xxx4x4x5--|
D--99xxx99xxx44xxx55----99xxx99xxx4x4x3--|

E---------------7---------------|
B-----------------7----------7--|
G---------7---------------7-----|
D------7---------------7--------|
A-------------------------------|
D---7--------7-------7----------|

E-------------------------------|
B-----------------------3-------|
G---------2--------4-------4----|
D------2--------5---------------|
A-------------------------------|
D---2--------3--------3---------|


Verse:
I got the dynamo of volition the p-pole postion, automatic transmission

E------------7-------------------------------------2-------------|
B------------7-------------------------------------2-------------|
G------------7-------------------------------------2-------------|
D------------7-------------------------------------2-------------|
A------------9-------------------------------------4-------------|
D------------9-------------------------------------4-------------|

with l-low emissions

E------------3----------|
B------------3----------|
G------------4----------|   Repeat for rest of verse
D------------5----------|
A------------5----------|
D------------3----------|

Chorus:
Good job, get them up way high, gimme gimme some high fives
E--------7------------------------------2-----2---------3---|
B--------7------------------------------2-----2---------3---|
G--------7------------------------------2-----2---------4---|
D--------7------------------------------2-----2---------5---|
A--------9------------------------------4-----4---------5---|
D--------9------------------------------4-----4---------3---|

All other verses like this:


E----0-0-----0-------2-2-----2-------0-0-----0-----------|
B----0-0-----0-------2-2-----2-------0-0-----0-----------|
G----0-0-----0-------2-2-----2-------0-0-----0-----------| Each chord changes
D----0-0-----0-------2-2-----2-------4-4-----4----7~~~~--| on each line,
A----2-2-----2-------4-4-----4-------5-5-----5----7~~~~--| listen to pick it
D----2-2-----2-------4-4-----4-------5-5-----5----7~~~~--| up


correct me if im wrong but i think this is pretty good!
Tap to rate this tab
# A B C D E F G H I J K L M N O P Q R S T U V W X Y Z