Song name
# A B C D E F G H I J K L M N O P Q R S T U V W X Y Z

Jason Mraz - In The Name Of Love tab

This song can be seen performed by Mraz here:-
http://www.youtube.com/watch?v=IATJhRjuj2Q&playnext_from=TL&videos=M2e9MY9cojk

notcied there wasn't a tab for it, so thought i would give it a whirl.


Intro:
|-------------------------------0-----------------------------------------|
|----3-3-----2-2-----3-3-----0h2------3-3-----2-2----5-5---4-4------------|
|----4-4-----0-0-----4-4--------------4-4-----0-0----3-3---2-2------------|
|----4-4-----2-2-----4-4--------------4-4-----2-2----5-5---4-4------------|X2
|-------2--0----0-------2--0-----0--------2--0---0--3---3-2---2-----------|
|-0----------------0----------------0-------------------------------------|

|------------------|
|----3-3-----2-2---|
|----4-4-----0-0---|
|----4-4-----2-2---| X4
|-------2--0----0--|
|-0----------------|

|---------------0-------------------------------------------|
|----3-3-----0h2--------3-3-----2-2----5-5---4-4/-----------|
|----4-4----------------4-4-----0-0----3-3---2-2/-----------|
|----4-4----------------4-4-----2-2----5-5---4-4/-----------|
|-------2--0-------0--------2--0----0-3---3--2-2/-----------|
|-0-------------------0-------------------------------------|

VERSE/CHORUS:

|------------------|
|----3-3-----2-2---|
|----4-4-----0-0---|
|----4-4-----2-2---| X6
|-------2--0----0--|
|-0----------------|

|-------------------------------|
|---1-1----3-3------------4-4/--|
|---0-0----0-0------0-0---2-2/--|
|---2-2----4-4------0-0---4-4/--|
|-3----3--5---5-----2-2---2-2/--|
|-----------------3----3--------|


|------------------|        |-----------|
|----3-3-----2-2---|        |--5---4----|
|----4-4-----0-0---|        |--3---2----|
|----4-4-----2-2---| X2     |--5---4----|
|-------2--0----0--|        |--3---2----|
|-0----------------|        |-----------|

|-------------------------------|
|----3-3-----2-2----3-3----4-4--|
|----4-4-----0-0----4-4----2-2--|
|----4-4-----2-2----4-4----4-4--|
|-------2--0----0------2---2-2--|
|-0----------------0------------|


MIDDLE SECTION:

|---------------------------------------------------------------------|
|-----1-----3---------8-------5----444444444-5-4----------------------|
|-----0-----0----0----8---5---3----222222222-3-2----------------------|
|-----2-----4----0----9---5---5----444444444-5-4----------------------|
|----3-3---5-----2---7----7--3-----222222222-3-2----------------------|
|---------------3--------5--------------------------------------------|

This is most of it i gather! Listen to the youtube link at the top to get a good idea of 
rhythm.
Will put lyrics up shortly..
Tap to rate this tab
 
# A B C D E F G H I J K L M N O P Q R S T U V W X Y Z