Song name
# A B C D E F G H I J K L M N O P Q R S T U V W X Y Z

Jason Mraz - Traveler tab

    __________________________________
   / Jason Mraz                      /  This is the sweet intro-piece played
  / Traveler                        /  as an opening for Make It Mine.
 / Beautiful Mess - Live on Earth  /
/_________________________________/

Jason Mraz is using both finger picking and strumming.
The essential thing about the strumming here is your left hand muting.
The ideal is to not let any other strings ring than those noted.



  G                         Em
|-3-----3-(x)-------------------|
|-3-----3-(x)-----5----7----8---|
|-0-----0-(x)-------------------|
|-0-----0-(x)-------------------|  (x)= Slap the strings with
|-x-----x-(x)-----3----5----7---|       your right hand palm.
|-3-----3-(x)-------------------|


 A:
   (Em)                        G                                     D
||--------------x-x----------------|------------------x-x------10--------|
||o---8-----8-8-x-x-8---10----12---|---12-------12-12-x-x-12---------7---|
||--------------x-x----------------|------------------x-x----------------|
||--------------x-x----------------|------------------x-x-------9--------|
||o---7-7-7-7-7-x-x-7----9----10---|---10-10-10-10-10-x-x-10---------5---|
||--------------x-x----------------|------------------x-x----------------|

 (D)                        C                 G/B           C
|-------------x-x---------------|---------x-x-----------x-x-----|
|---7-----7-7-x-x-7----8----5---|---5-5-5-x-x-3---3-3-3-x-x-5---|
|-------------x-x-----------0---|---0-0-0-x-x-0---0-0-0-x-x-0---|
|-------------x-x---------------|---------x-x-----------x-x-----|
|---5-5-5-5-5-x-x-5----7----3---|---3-3-3-x-x-2---2-2-2-x-x-3---|
|-------------x-x---------------|---------x-x-----------x-x-----|

 (C)                          Em   3x  (1st time solo,
|---------x-x-(x)------------------||   2nd time the band comes in.)
|---5-5-5-x-x-(x)---5----7----8---o||
|---0-0-0-x-x-(x)------------------||
|---------x-x-(x)------------------||
|---3-3-3-x-x-(x)---3----5----7---o||
|---------x-x-(x)------------------||


 B:
 (Em)                        G                                      C
|-------------x-x----------------|------------------x-x------10----12---|
|---8-----8-8-x-x-8---10----12---|---12-------12-12-x-x-12--------------|
|-------------x-x----------------|------------------x-x-----------------|
|-------------x-x----------------|------------------x-x-------9----10---|
|---7-7-7-7-7-x-x-7----9----10---|---10-10-10-10-10-x-x-10--------------|
|-------------x-x----------------|------------------x-x-----------------|

 (C)                               G 
|---12-------12-12-x-x-12---10---------|------------x-x-(x)-------------|
|------------------x-x------------12---|---12-12-12-x-x-(x)---12--------|
|------------------x-x-----------------|------------x-x-(x)-------------|
|---10-10-10-10-10-x-x-10----9---------|------------x-x-(x)-------------|
|------------------x-x------------10---|---10-10-10-x-x-(x)---10--------|
|------------------x-x-----------------|------------x-x-(x)-------------|

                                 (2/4)
   C               G               D             C
|-12----10----8------------------|---------(x)-------|
|-----------------12---10----8---|-7-------(x)---5---|
|--------------------------------|---------(x)---0---|
|-10-----9----7------------------|---------(x)-------|
|-----------------10----9----7---|-5-------(x)---3---|
|--------------------------------|---------(x)-------|

 (C)          G/B           C                                 Em
|---------x-x-----------x-x-----|---------x-x-(x)-----------------|
|---5-5-5-x-x-3---3-3-3-x-x-5---|---5-5-5-x-x-(x)---5----7----8---|
|---0-0-0-x-x-0---0-0-0-x-x-0---|---0-0-0-x-x-(x)-----------------|
|---------x-x-----------x-x-----|---------x-x-(x)-----------------|
|---3-3-3-x-x-2---2-2-2-x-x-3---|---3-3-3-x-x-(x)---3----5----7---|
|---------x-x-----------x-x-----|---------x-x-(x)-----------------|


 A:
   (Em)                        G                                     D
||--------------x-x----------------|------------------x-x------10--------|
||o---8-----8-8-x-x-8---10----12---|---12-------12-12-x-x-12---------7---|
||--------------x-x----------------|------------------x-x----------------|
||--------------x-x----------------|------------------x-x-------9--------|
||o---7-7-7-7-7-x-x-7----9----10---|---10-10-10-10-10-x-x-10---------5---|
||--------------x-x----------------|------------------x-x----------------|

 (D)                        C                 G/B           C
|-------------x-x---------------|---------x-x-----------x-x-----|---------:
|---7-----7-7-x-x-7----8----5---|---5-5-5-x-x-3---3-3-3-x-x-5---|---------:
|-------------x-x-----------0---|---0-0-0-x-x-0---0-0-0-x-x-0---|---------:
|-------------x-x---------------|---------x-x-----------x-x-----|---------:
|---5-5-5-5-5-x-x-5----7----3---|---3-3-3-x-x-2---2-2-2-x-x-3---|---------:
|-------------x-x---------------|---------x-x-----------x-x-----|---------:

 Let the last C ring until the drummer counts in for Make It Mine...


Here's my tab for it:
http://www.ultimate-guitar.com/tabs/j/jason_mraz/make_it_mine_ver2_crd.htm

+--------------------------------------------------------------------------+
Jon Sebastian Frederiksen - 28th /October /10
Just mail me at Maitinin@gmail.com with questions, comments and corrections!
Tap to rate this tab
 
# A B C D E F G H I J K L M N O P Q R S T U V W X Y Z