Song name
# A B C D E F G H I J K L M N O P Q R S T U V W X Y Z

Jason Mraz - Details In The Fabric tab

-------------------------------------------------------------------------------
			     DETAILS IN THE FABRIC - Jason Mraz
-------------------------------------------------------------------------------
Tabbed by: Trat5
Email: thomas.ratcliff@verizon.net

During the 2nd chorus the song changes slightly where he uses the E string and 
plays a G and an F. For the F instead of barring it I wrap my thumb around but if 
you can't just play those parts like the first chorus. Enjoy!

Tuning: Standard

Capo 6th fret

e|----X--0------------X--0------------X--0------------X--0---------|
B|----1----1---1------1----1---1------3----3---3------3----3---3---|
G|----2------0---0----2------0---0----0------0---0----0------0---0-|
D|--3-3-------3-----3-3-------3-----3-3-------3-----3-3-------3----|
A|0---0-0---0---0-0---0-0---0---0-2---2-2---2---2-2---2-2---2---2--|
E|----X---------------X---------------X---------------X------------|

e|----X--0------------X--0------------X--0------------X--0---------|
B|----1----1---1------1----1---1------3----3---3------3----3---3---|
G|----2------0---0----2------0---0----0------0---0----0------0---0-|
D|--3-3-------3-----3-3-------3-----3-3-------3-----3-3-------3----|
A|0---0-0---0---0-0---0-0---0---0-2---2-2---2---2-2---2-2---2---2--|
E|----X---------------X---------------X---------------X------------|

e|----X--0------------X--0------------X--0-------------------------|
B|----1----1---1------1----1---1------3----3---3-------------------|
G|----2------0---0----2------0---0----0------0---0-----------------|
D|--3-3-------3-----3-3-------3-----3-3-------3--------------------|
A|0---0-0---0---0-0---0-0---0---0-2---2-2---2---2-2hold------------|
E|----X---------------X---------------X----------------------------|

(voice mail ends)

e|----X--0------------X--0------------X--0------------X--0---------|
B|----1----1---1------1----1---1------3----3---3------3----3---3---|
G|----2------0---0----2------0---0----0------0---0----0------0---0-|
D|--3-3-------3-----3-3-------3-----3-3-------3-----3-3-------3----|
A|0---0-0---0---0-0---0-0---0---0-2---2-2---2---2-2---2-2---2---2--|
E|----X---------------X---------------X---------------X------------|

e|----X--0------------X--0------------X--0------------X--0---------|
B|----1----1---1------1----1---1------3----3---3------3----3---3---|
G|----2------0---0----2------0---0----0------0---0----0------0---0-|
D|--3-3-------3-----3-3-------3-----3-3-------3-----3-3-------3----|
A|0---0-0---0---0-0---0-0---0---0-2---2-2---2---2-2---2-2---2---2--|
E|----X---------------X---------------X---------------X------------|


VERSE:

e|----X--0------------X--0------------X--0------------X--0---------|
B|----1----1---1------1----1---1------3----3---3------3----3---3---|
G|----2------0---0----2------0---0----0------0---0----0------0---0-|
D|--3-3-------3-----3-3-------3-----3-3-------3-----3-3-------3----|
A|0---0-0---0---0-0---0-0---0---0-2---2-2---2---2-2---2-2---2---2--|
E|----X---------------X---------------X---------------X------------|

e|----X--0------------X--0------------X--0------------X--0---------|
B|----1----1---1------1----1---1------3----3---3------3----3---3---|
G|----2------0---0----2------0---0----0------0---0----0------0---0-|
D|--3-3-------3-----3-3-------3-----3-3-------3-----3-3-------3----|
A|0---0-0---0---0-0---0-0---0---0-2---2-2---2---2-2---2-2---2---2--|
E|----X---------------X---------------X---------------X------------|

e|----X--0------------X--0------------X--0------------X--0---------|
B|----1----1---1------1----1---1------3----3---3------3----3---3---|
G|----2------0---0----2------0---0----0------0---0----0------0---0-|
D|--3-3-------3-----3-3-------3-----3-3-------3-----3-3-------3----|
A|0---0-0---0---0-0---0-0---0---0-2---2-2---2---2-2---2-2---2---2--|
E|----X---------------X---------------X---------------X------------|

e|----X--0------------X--0-----------------------------------------|
B|----1----1---1------1----1---1-----------------------------------|
G|----2------0---0----2------0---0---------------------------------|
D|--3-3-------3-----3-3-------3------------------------------------|
A|0---0-0---0---0-0---0-0---0---0-2hold----------------------------|
E|----X---------------X--------------------------------------------|


CHORUS: 

e|-----X--0------------X--0------------X--3------------X--3----------|
B|-----1----1---1------3----3---3------1----1---1------1----1---1----|
G|-----0------0---0----0------0---0----0------0---0----0------0---0--|
D|---2-2-------2-----0-0-------0-----2-2-------2-----2-2-------2-----|
A|-3---3-3---3---3-2---2-2---2---2-0---0-0---0---0-0---0-0---0---0---|
E|-----X---------------X---------------X---------------X-------------|


e|-----X--3------------X--0------------X--3------------X--3----------|
B|-----1----1---1------3----3---3------1----1---1------3----3---3----|
G|-----0------0---0----0------0---0----0------0---0----0------0---0--|
D|---2-2-------2-----0-0-------0-----2-2-------2-----0-0-------0-----|
A|-3---3-3---3---3-2---2-2---2---2-0---0-0---0---0-2---2-2---2---2---|
E|-----X---------------X---------------X---------------X-------------|

e|-----X--1------------X--1------------------------------------------|
B|-----1----1---1------1----1---1----------3-------------------------|
G|-----2------2---2----2------2---2----0-----------------------------|
D|---3-3-------3-----3-3-------3-----0---0---------------------------|
A|-0---0-0---0---0-0---0-0---0---0-2---------------------------------|
E|-----X---------------X---------------------------------------------|


POST CHORUS 

e|----X--0------------X--0------------X--0------------X--0---------|
B|----1----1---1------1----1---1------3----3---3------3----3---3---|
G|----2------0---0----2------0---0----0------0---0----0------0---0-|
D|--3-3-------3-----3-3-------3-----3-3-------3-----3-3-------3----|
A|0---0-0---0---0-0---0-0---0---0-2---2-2---2---2-2---2-2---2---2--|
E|----X---------------X---------------X---------------X------------|

e|----X--0------------X--0------------X--0------------X--0---------|
B|----1----1---1------1----1---1------3----3---3------3----3---3---|
G|----2------0---0----2------0---0----0------0---0----0------0---0-|
D|--3-3-------3-----3-3-------3-----3-3-------3-----3-3-------3----|
A|0---0-0---0---0-0---0-0---0---0-2---2-2---2---2-2---2-2---2---2--|
E|----X---------------X---------------X---------------X------------|


VERSE 2:

e|----X--0------------X--0------------X--0------------X--0---------|
B|----1----1---1------1----1---1------3----3---3------3----3---3---|
G|----2------0---0----2------0---0----0------0---0----0------0---0-|
D|--3-3-------3-----3-3-------3-----3-3-------3-----3-3-------3----|
A|0---0-0---0---0-0---0-0---0---0-2---2-2---2---2-2---2-2---2---2--|
E|----X---------------X---------------X---------------X------------|

e|----X--0------------X--0------------X--0-------------------------|
B|----1----1---1------1----1---1------3----3---3-------------------|
G|----2------0---0----2------0---0----0------0---0-----------------|
D|--3-3-------3-----3-3-------3-----3-3-------3--------------------|
A|0---0-0---0---0-0---0-0---0---0-2---2-2---2---2-2hold------------|
E|----X---------------X---------------X----------------------------|


CHORUS:

e|-----X--3------------X--0------------X--3------------X--3----------|
B|-----1----1---1------3----3---3------1----1---1------1----1---1----|
G|-----0------0---0----0------0---0----0------0---0----0------0---0--|
D|---2-2-------2-----0-0-------0-----2-2-------2-----2-2-------2-----|
A|-3---3-3---3---3-2---2-2---2---2-0---0-0---0---0-0---0-0---0---0---|
E|-----X---------------X---------------X---------------X-------------|


e|-----X--3------------X--0------------X--3------------X--3----------|
B|-----1----1---1------3----3---3------1----1---1------3----3---3----|
G|-----0------0---0----0------0---0----0------0---0----0------0---0--|
D|---2-2-------2-----0-0-------0-----2-2-------2-----0-0-------0-----|
A|-3---3-3---3---3-2---2-2---2---2-0---0-0---0---0-----2-2-----------|
E|-----X---------------X---------------X-----------3---3-----3---3---|


e|-----X--1------------X--3------------X--1--------------------------|
B|-----1----1---1------3----3---3------1----1---1--------------------|
G|-----2------2---2----0------0---0----2------2---2------------------|
D|---3-3-------3-----0-0-------0-----3-3-------3---------------------|
A|-----0-0-------------2-2-------------0-0---------------------------|
E|-1---X-----1---1-3---3-----3---3-1---X-----1---1-3hold-------------|


BRIDGE:

e|-----X--3------------X--0------------X--3------------X--3----------|
B|-----1----1---1------3----3---3------1----1---1------1----1---1----|
G|-----0------0---0----0------0---0----0------0---0----0------0---0--|
D|---2-2-------2-----0-0-------0-----2-2-------2-----2-2-------2-----|
A|-3---3-3---3---3-2---2-2---2---2-0---0-0---0---0-0---0-0---0---0---|
E|-----X---------------X---------------X---------------X-------------|

e|-----X--3------------X--0------------X--3------------X--3----------|
B|-----1----1---1------3----3---3------1----1---1------3----3---3----|
G|-----0------0---0----0------0---0----0------0---0----0------0---0--|
D|---2-2-------2-----0-0-------0-----2-2-------2-----0-0-------0-----|
A|-3---3-3---3---3-2---2-2---2---2-0---0-0---0---0-----2-2-----------|
E|-----X---------------X---------------X-----------3---3-----3---3---|

e|-----X--1------------X--3------------X--1------------X--3----------|
B|-----1----1---1------3----3---3------1----1---1------3----3---3----|
G|-----2------2---2----0------0---0----2------2---2----0------0---0--|
D|---3-3-------3-----0-0-------0-----3-3-------3-----0-0-------0-----|
A|-----0-0-------------2-2-------------0-0-------------2-2-----------|
E|-1---X-----1---1-3---3-----3---3-1---X-----1---1-3---3-----3---3---|

e|-----X--1--------------------------------------------------|
B|-----1----1---1--------------------------------------------|
G|-----2------2---2------------------------------------------|
D|---3-3-------3---------------------------------------------|
A|-----0-0---------------------------------------------------|
E|-1---X-----1---1-3-----------------------------------------|


CHORUS:


e|-----X--3------------X--0------------X--3------------X--3----------|
B|-----1----1---1------3----3---3------1----1---1------1----1---1----|
G|-----0------0---0----0------0---0----0------0---0----0------0---0--|
D|---2-2-------2-----0-0-------0-----2-2-------2-----2-2-------2-----|
A|-3---3-3---3---3-2---2-2---2---2-0---0-0---0---0-0---0-0---0---0---|
E|-----X---------------X---------------X---------------X-------------|


e|-----X--3------------X--0------------X--3------------X--3----------|
B|-----1----1---1------3----3---3------1----1---1------1----1---1----|
G|-----0------0---0----0------0---0----0------0---0----0------0---0--|
D|---2-2-------2-----0-0-------0-----2-2-------2-----2-2-------2-----|
A|-3---3-3---3---3-2---2-2---2---2-0---0-0---0---0-0---0-0---0---0---|
E|-----X---------------X---------------X---------------X-------------|


e|-----X--3------------X--0------------X--3------------X--3----------|
B|-----1----1---1------3----3---3------1----1---1------1----1---1----|
G|-----0------0---0----0------0---0----0------0---0----0------0---0--|
D|---2-2-------2-----0-0-------0-----2-2-------2-----2-2-------2-----|
A|-3---3-3---3---3-2---2-2---2---2-0---0-0---0---0-0---0-0---0---0---|
E|-----X---------------X---------------X---------------X-------------|


e|-----X--3------------X--0------------X--3------------X--3----------|
B|-----1----1---1------3----3---3------1----1---1------3----3---3----|
G|-----0------0---0----0------0---0----0------0---0----0------0---0--|
D|---2-2-------2-----0-0-------0-----2-2-------2-----0-0-------0-----|
A|-3---3-3---3---3-2---2-2---2---2-0---0-0---0---0-----2-2-----------|
E|-----X---------------X---------------X-----------3---3-----3---3---|

e|-----X--1------------X--3------------X--1------------X--3----------|
B|-----1----1---1------3----3---3------1----1---1------3----3---3----|
G|-----2------2---2----0------0---0----2------2---2----0------0---0--|
D|---3-3-------3-----0-0-------0-----3-3-------3-----0-0-------0-----|
A|-----0-0-------------2-2-------------0-0-------------2-2-----------|
E|-1---X-----1---1-3---3-----3---3-1---X-----1---1-3---3-----3---3---|

e|-----X--1--------------------------------------------------|
B|-----1----1---1--------------------------------------------|
G|-----2------2---2------------------------------------------|
D|---3-3-------3---------------------------------------------|
A|-----0-0---------------------------------------------------|
E|-1---X-----1---1-3-----------------------------------------|


OUTRO:(fades out second time around)

e|----X--0------------X--0------------X--0------------X--0---------|
B|----1----1---1------1----1---1------3----3---3------3----3---3---|
G|----2------0---0----2------0---0----0------0---0----0------0---0-|
D|--3-3-------3-----3-3-------3-----3-3-------3-----3-3-------3----|
A|0---0-0---0---0-0---0-0---0---0-2---2-2---2---2-2---2-2---2---2--|
E|----X---------------X---------------X---------------X------------|

e|----X--0------------X--0------------X--0------------X--0---------|
B|----1----1---1------1----1---1------3----3---3------3----3---3---|
G|----2------0---0----2------0---0----0------0---0----0------0---0-|
D|--3-3-------3-----3-3-------3-----3-3-------3-----3-3-------3----|
A|0---0-0---0---0-0---0-0---0---0-2---2-2---2---2-2---2-2---2---2--|
E|----X---------------X---------------X---------------X------------|
Tap to rate this tab
 
# A B C D E F G H I J K L M N O P Q R S T U V W X Y Z