Jason Mraz - Life Is Wondeful tab

Jason Mraz - Life is Wonderful (Live version)

I just took the tab that is already out there for this and fixed it so it is now more correct.

Capo on 2
Standard tuning
Chords are relative to the capo
 
Verse F#m                             Bm
e| ----------------------------------------------------------------|
b|O--------------------------------------3-------3-------3-------3-|
g| -----2-------2-------2-------2--------4-------4-------4-------4-|
d| -----4-------4-------4-------4--------4-------4-------4-------4-|
a|0-----4-------4-------4-------4-----2-----0-2-----0-2-----0-2----|
e| --2-----0-2-----0-2-----0-2-----2-------------------------------|
       D               Dm               A             E  x1        X2
e|---------------------------------------------------------- |---------|
b|--------7-------7-------6-------6-------------------------0|----0----|
g|--------7-------7-------7-------7--------6-------6-----1-- |-----1---|
d|--------7-------7-------7-------7--------7-------7-----2-- |---2--2--|
a|--2--5-----5-5-----5-5-----5-5-----5-----7-------7-----2--0|--2----2-|
e|--------------------------------------5-----5-5-----0----- |-0-------|

Chorus/Outro    F#m   Bm              E              A    
e|-----------------------------------------------------------------|
b|----------------------3-------3-----------------------2-------2--|
g|-----2--------2-------4-------4-------1-------1-------2-------2--|
d|-----4--------4-------4-------4-------2-------2-------2-------2--|
a|-----4--------4----2-----0-2-----2----2-------2----0-----0-0----0|
e|--2-----0-2------2-----------------0-----0-0-----0---------------|
     F#m              Bm              E
e|---------------------------------------------------|
b|----------------------3-------3--------------------|
g|-----2--------2-------4-------4-------1-------1----|
d|-----4--------4-------4-------4-------2-------2----|
a|-----4--------4----2-----0-2-----2----2-------2----|
e|--2-----0-2------2-----------------0-----0-0-----0-|

End On
-let it ring-
|--2--|
|--2--|
|--2--|
|--4--|
|--4--|
|--2--|

Don't forget to add in the vocal trumpet solo over one of the verses for fun!
Good Song! Enjoy!
Tap to rate this tab
 
# A B C D E F G H I J K L M N O P Q R S T U V W X Y Z