Song name
# A B C D E F G H I J K L M N O P Q R S T U V W X Y Z

Jason Mraz - Life Is Wonderful tab

Jason Mraz - Life is wonderful
Capo 2nd of 3rd fret
I hope you like it, and good luck!!


  Verse
E |-----------------------------------------------------------------------|
B |-----------------------------------------------------------------------|
G |------------------------------------------4---------4--------4---------|
D |----4---------4--------4--------4---------4---------4--------4---------|
A |----4---------4--------4--------4---0--2------0--2-----0--2------0-2-4-|
E |-2------0--2-----0--2-----0--2-----------------------------------------|

E|-----------------------------------------------------------------------|
B|-----------------------------------------------------------------------|
G|-----7--------7--------7--------7-------------------------1------------|
D|-----7--------7--------7--------7---------7--------7------2------------|
A|--5-----0--5-----0--5-----0--5------------7--------7------2------------|
E|------------------------------------0--5-----0--5------0--0-----0---1--|


  Chorus/Outro
E |-----------------------------------------------------------------------|
B |-----------------------------------------------------------2-----------|
G |--------------------------4--------4-------1--------1------2-----------|
D |-----4--------4-----------4--------4-------2--------1------2-----------|
A |-----4--------4-----0--2-----0--2----------2--------2---0----0-2-0-----|
E |--2-----0--2----------------------------0-----0--0-----------------4-2-|

E |---------------------------------------------------------------|
B |------------------------------------------------------------0--|
G |--------------------------4--------4------1------1--------1----|
D |-----4--------4-----------4--------4------2------2------2------|
A |-----4--------4-----0--2-----0--2---------2------2----2--------|
E |--2-----0--2---------------------------0-----0-0----0----------|


Thank you!
Tap to rate this tab
 
# A B C D E F G H I J K L M N O P Q R S T U V W X Y Z