Song name
# A B C D E F G H I J K L M N O P Q R S T U V W X Y Z

Jason Mraz - Life Is Wonderful tab

Jason Mraz - Life is wonderful
Capo 2nd of 3rd fret
I hope you like it, and good luck!!
Made bij Mr. Klever



                                                             <- - - 
                                                                   |
E |-------------------------------------------------------------|  |
B |-------------------------------------------------------------|  |
G |-------------------------------------------------------------|  |
D |-------------------------------4---------4--------4--------4-|  |
A |-------------------------------4---------4--------4--------4-|  |
E |----------------------------2------0--2-----0--2-----0--2----|  |
  'It takes a crane to build a crane'                 'It takes two floors...
                                                                   |    
                                                                   |       
E |------------------------------------|                           |  
B |------------------------------------|                           |      
G |-------4---------4--------4---------|                           |
D |-------4---------4--------4---------|                           |
A |-0--2------0--2-----0--2------0-2-4-|                           |       
E |------------------------------------|                           |  
   ...to make a story'        'It takes an egg...                  |
                                                                   |
                                                                   |  2X
                                                                   |
E |-----------------------------------|                            |
B |-----------------------------------|                            |
G |-----7--------7--------7--------7--|                            |
D |-----7--------7--------7--------7--|                            |
A |--5-----0--5-----0--5-----0--5-----|                            |
E |-----------------------------------|                            |
    ...to make a hen' 'It takes a hen to make an egg'              |
                          'There is no end to what...              |
                                                                   |
E |-------------------------------------|                          |
B |-------------------------------------|                          |
G |------------------------1------------|                          |
D |--------7--------7------2------------|                          |
A |--------7--------7------2------------|                          |
E |--0--5-----0--5------0--0-----0-1-2--|                          |
       ........i'm saying'    'It takes a thought to make...       |
                                                             <- - -
                           ^
                           |                        E |------------|
                           |     2nd time           B |---------0--|
                            - - - - - - - - - - - - G |-------1----|
                                                    D |-----2------|
...a word'                                          A |---2--------|
'And it takes some words to make an action'         E |-0----------|
'It takes some work to make it work'
'It takes some good to make it hurt'
'It takes some bad for satisfaction'

E |-----------------------------------------------------------------------| 
B |-----------------------------------------------------------2-----------| 
G |--------------------------4--------4-------1--------1------2-----------| 
D |-----4--------4-----------4--------4-------2--------1------2-----------| 
A |-----4--------4-----0--2-----0--2----------2--------2---0----0-2-0-----| 
E |--2-----0--2----------------------------0-----0--0-----------------4-2-| 
 'La la la la la la la life is wonderful' 'Ah la la la la la la life goes..  ..full circle'

E |--------------------------------------------------------|
B |------------------------------------------1------1---1--|
G |--------------------------4--------4------2------2---2--|
D |-----4--------4-----------4--------4------2------2---2--|
A |-----4--------4-----0--2-----0--2------0------0------0--|
E |--2-----0--2--------------------------------------------|
 'Ah la la la la la la life is wonderful'  'Al la la la la'


                 

                        Now you play the same way.




It takes a night to make it dawn
And it takes a day to make you yawn brother
And it takes some old to make you young
It takes some cold to know the sun
It takes the one to have the other


And it takes no time to fall in love
But it takes you years to know what love is
It takes some fears to make you trust
It takes those tears to make it rust
It takes the dust to have it polished


Ha la la la la la la life is wonderful
Ah la la la la la la life goes full circle
Ah la la la la la la life is so full of
Ah la la la la la la life is so rough
Ah la la la la la la life is wonderful
Ah la la la la la la life goes full circle
Ah la la la la la la life is our love
Ah la la la la la


It takes some silence to make sound
It takes a loss before you found it
And it takes a road to go nowhere
It takes a toll to make you care
It takes a hole to make a mountain


Ah la la la la la la life is wonderful
Ah la la la la la la life goes full circle
Ha la la la la la life is wonderful
Ha la la la la la life is meaningful
Ha la la la la la life is wonderful
Ha la la la la la life it is...so... wonderful

It is so meaningful
It is so wonderful
It is meaningful
It is wonderful
It is meaningful
It goes full circle
Wonderful
Meaningful
Full circle
Wonderful



Tap to rate this tab
 
# A B C D E F G H I J K L M N O P Q R S T U V W X Y Z