Song name
# A B C D E F G H I J K L M N O P Q R S T U V W X Y Z

Jason Mraz - The Darkest Space chords

Highlighted       Show chord diagrams
Jason Mraz - The Darkest Space 
From the album 'On Love, In Sadness: The E minor EP in F'

Jason uses a capo on 1st fret on the recording on the E minor EP in F album but he 
uses the capo on 2 for the live plays I have heard.

Chords:
    Em    Em7    B7   Am7   Cmaj7 Gmaj7   F
e|---0-----7-----2-----0------0-----2-----1--|
B|---0-----8-----0-----1------0-----3-----1--|
G|---0-----7-----2-----0------0-----0-----2--|
D|---2-----9-----1-----2------2-----0-----3--|
A|---2-----7-----2-----0------3-----2-----3--|
E|---0------------------------------3-----1--|

Verse Chords:
|: Em, Em7, B7, Am7, B7, Em :|

Basic strumming pattern:
   Em     Em7    B7              Am7      B7       Em
  PM--|  PM--|  PM--| PM--|     PM-|     PM-|      PM--|
e|-----0------7------2------2-------0-x-0----2-x-2------0------|
B|-----0------8------0------0-------1-x-1----0-x-0------0---0--|
G|-----0------7------2------2-(2)---0-x-0----2-x-2------0-0-0--|
D|-----2------9------1------1-(0)---2-x-2------x-1------2-0-2--|
A|-----2-/7-7-7-\2-2-2--2-2-2--1--0-----0--2-----2------2-0-2--|
E|-0-0-0--------------------------------------------0-0-0---0--|



Chorus Chords: (where they fall displayed in the lyrics)
Cmaj7, Gmaj7, Cmaj7, Gmaj7, F, Cmaj7, B7


Outro Chords:
|: Am7, B7, Em :|


Lyrics:

(Verse 1) 
Well I'm not just a song anymore
I just might be the whole damn score
I might be realing in your head while
you're sleeping in your bed at night
well I'm not just along anymore
I finally found what I've been lookin for
I might be sitting in the passenger's
side but not along for the ride
Cause I have control of a home grown situation
I lay back and then I turn the alarm off and turn out the light
There's goin to be some quality sleeping
cuz quality's keeping the quality up at night
I am fixed to lay with my arms out and learning to fly

(Chorus)
                    Cmaj7
Through the darkest space
         Gmaj7
Where I try to catch up to the catch phrased
 Cmaj7          Gmaj7
Human race I say let the games begin
F                Cmaj7
Under way say in conditions that we play in
B7
Maybe things are better this way
may the games begin today.

(Verse 2)
'Cause I'm just above
the aggrevation of love
and I raise to opimistical fortune and toasting it twice
I'm sitting high on an anytime any day night
And I laugh to think I'm crying my eyes out well isn't it nice

(Chorus x2)

(Outro)
Verse chords for a few bars skatting around 'Don't you want some love'
Then the outro chords over skatting.

End on and Em or play a natural harmonic on low E string fret 5.

************************************

Tab Key:

PM  -  Palm mute
 /  -  Slide up
 \  -  Slide down
 x  -  Muted or 'dead' note

************************************
Tap to rate this tab
# A B C D E F G H I J K L M N O P Q R S T U V W X Y Z