Song name
# A B C D E F G H I J K L M N O P Q R S T U V W X Y Z

Jason Mraz - They Shaped My Life Who I Am Today tab

_____________________________________________________________________________

                        Jason Mraz - They Shaped My Life  
_____________________________________________________________________________

I've looked at several YouTube videos. And now I made this.
hopefully it's well done, and let me know what you thought of it.
Capo 2nd fret

   Intro
E |-----------------------------------------------|
B |-----------------------------------------------|
G |-----1----------4-----------2--------1---------|
D |-----2----------4-4/6/4-----2--------2---------|
A |---2----------x-----------x----------2---------|
E |-0--------3/4-----------2------------0---------|


   Part 1
E |-----------------------------------------|
B |-----------------------------------------|
G |-----1----------4--------2-----1-------x-| 4x
D |-----2----------4--------2-----2-------x-|
A |---2----------x--------x-------2-------x-|
E |-0--------3/4--------2---------0-------x-|


   Solo
E |-----------------------------------------------|
B |-----------------------------------------------|
G |-----1----------4-----------2--------1---------|
D |-----2----------4-4/6/4-----2--------2-----2---|
A |---2----------x-----------x--------2---0/2-----|
E |-0--------3/4-----------2--------0-------------|

E |-----------------------------------------------|
B |-----------------------------------------------|
G |-----1----------4-----------2--------1---------|
D |-----2----------4-4/6/4-----2--------2---------|
A |---2----------x-----------x----------2---------|
E |-0--------3/4-----------2------------0---------|


   Part 2
E |-----------------------------------------|
B |-----------------------------------------|
G |-----1----------4--------6-----1-------x-| 5x
D |-----2----------4--------7-----2-------x-|
A |---2----------x--------7-------2-------x-|
E |-0--------3/4--------5---------0-------x-|


   Part 3
E |------------------------------------------------------------|
B |-5---5-5----5---5-5-5-5-5-----------------------------------|
G |-6---6-6----6---6-6-6-6-6------3---3-3----3---3-3-3-3-3-----|
D |-6---6-6----6---6-6-6-6-6------4---4-4----4---4-4-4-4-4-----|
A |-4---4-4----4---4-4-4-4-4------4---4-4----4---4-4-4-4-4-----|
E |-------------------------------2---2-2----2---2-2-2-2-2-----|

E |------------------------------------------------------------|
B |------------------------------------------------------------|
G |-6---6-6----6---6-6-6-6-6------5---5-5----5---5-5-5-5-5-----|
D |-7---7-7----7---7-7-7-7-7------6---6-6----6---6-6-6-6-6-----|
A |-7---7-7----7---7-7-7-7-7------6---6-6----6---6-6-6-6-6-----|
E |-5---5-5----5---5-5-5-5-5------5---5-5----5---5-5-5-5-5-----|

E |------------------------------------------------------------|
B |-5---5-5----5---5-5-5-5-5-----------------------------------|
G |-6---6-6----6---6-6-6-6-6------3---3-3----3---3-3-3-3-3-----|
D |-6---6-6----6---6-6-6-6-6------4---4-4----4---4-4-4-4-4-----|
A |-4---4-4----4---4-4-4-4-4------4---4-4----4---4-4-4-4-4-----|
E |-------------------------------2---2-2----2---2-2-2-2-2-----|

E |------------------------------------------------------------|
B |------------------------------------------------------------|
G |-6-----------------------------5----------------------------|
D |-7-----------------------------6----------------------------|
A |-7-----------------------------6----------------------------|
E |-5-----------------------------5----------------------------|

   Solo
E |-----------------------------------------------|
B |-----------------------------------------------|
G |-1---2---3---4-------------2-2----1--1-1-------|
D |-2---2---3---4--4/6/4------2-2----2--2-2-----2-|
A |-2---x---x---x-------------x-x----2--2-2-0\2---|
E |-0---2---3---4-------------2-2----0--0-0-------|

E |-----------------------------------------------|
B |-----------------------------------------------|
G |-----1----------4-----------2--------1---------|
D |-----2----------4-4/6/4-----2--------2---------|
A |---2----------x-----------x----------2---------|
E |-0--------3/4-----------2------------0---------|



   Part 1
E |---------------------------------------|
B |---------------------------------------|
G |-----1----------4--------6-----1-------| 4x
D |-----2----------4--------7-----2-------|
A |---2----------x--------7-------2-------|
E |-0--------3/4--------5---------0-------|

E |---------------------------------------|
B |---------------------------------------|
G |-2---------5---------3---------2-------|
D |-3---------5---------3---------3-------|
A |-3---------x---------x---------3-------|
E |-1---------5---------3---------1-------|


   Part 4
E |--------------------------------------------------|
B |--------------------------------------------------|
G |-2---2-2----5---5-5-5-5-5------3-3---2---2-2------|
D |-3---3-3----5---5-5-5-5-5------3-3---3---3-3------| 4x
A |-3---3-3----x---x-x-x-x-x------x-x---3---3-3------|
E |-1---1-1----5---5-5-5-5-5------3-3---1---1-1------|


   Part 3
E |------------------------------------------------------------|
B |-6---6-6----6---6-6-6-6-6-----------------------------------|
G |-7---7-7----7---7-7-7-7-7------4---4-4----4---4-4-4-4-4-----|
D |-7---7-7----7---7-7-7-7-7------5---5-5----5---5-5-5-5-5-----|
A |-5---5-5----5---5-5-5-5-5------5---5-5----5---5-5-5-5-5-----|
E |-------------------------------3---3-3----3---3-3-3-3-3-----|

E |------------------------------------------------------------|
B |------------------------------------------------------------|
G |-7---7-7----7---7-7-7-7-7------6---6-6----6---6-6-6-6-6-----|
D |-8---8-8----8---8-8-8-8-8------7---7-7----7---7-7-7-7-7-----|
A |-8---8-8----8---8-8-8-8-8------7---7-7----7---7-7-7-7-7-----|
E |-6---6-6----6---6-6-6-6-6------6---6-6----6---6-6-6-6-6-----|

E |------------------------------------------------------------|
B |-6---6-6----6---6-6-6-6-6-----------------------------------|
G |-7---7-7----7---7-7-7-7-7------4---4-4----4---4-4-4-4-4-----|
D |-7---7-7----7---7-7-7-7-7------5---5-5----5---5-5-5-5-5-----|
A |-5---5-5----5---5-5-5-5-5------5---5-5----5---5-5-5-5-5-----|
E |-------------------------------3---3-3----3---3-3-3-3-3-----|

E |------------------------------------------------------------|
B |------------------------------------------------------------|
G |-7-----------------------------6----------------------------|
D |-8-----------------------------7----------------------------|
A |-8-----------------------------7----------------------------|
E |-6-----------------------------6----------------------------|


   Solo
E |-----------------------------------------------|
B |-----------------------------------------------|
G |-----1----------4-----------2--------1---------|
D |-----2----------4-4/6/4-----2--------2-----2---|
A |---2----------x-----------x--------2---0/2-----|
E |-0--------3/4-----------2--------0-------------|

E |-----------------------------------------------|
B |-----------------------------------------------|
G |-----1----------4-----------2--------1---------|
D |-----2----------4-4/6/4-----2--------2---------|
A |---2----------x-----------x--------2-----------|
E |-0--------3/4-----------2--------0-------------|


   Part 4
E |-----------------------------------------------|
B |-----------------------------------------------|
G |-2---2-2----5---5-5-5-5-5----3-3---2---2-2-----|
D |-3---3-3----5---5-5-5-5-5----3-3---3---3-3-----| 5x
A |-3---3-3----x---x-x-x-x-x----x-x---3---3-3-----|
E |-1---1-1----5---5-5-5-5-5----3-3---1---1-1-----|


   Ending
E |---------------------------------------|
B |---------------------------------------|
G |-2---------5---------3---------2-------|
D |-3---------5---------3---------3-------|
A |-3---------x---------x---------3-------|
E |-1---------5---------3---------1-------|



Something like that..
Tap to rate this tab
 
# A B C D E F G H I J K L M N O P Q R S T U V W X Y Z