Guitaretab - guitar tabs
Song name
# A B C D E F G H I J K L M N O P Q R S T U V W X Y Z

Jason Mraz - I Wont Give Up tab

--------------------------------------------------------------------------------              
I wont give up- Jason Mraz
---------------------------------------------------------------------------------
is isnít exactly how he plays is cause I learn t it by ear and by watching him 
play it. But I hope it helps.

Tuning: standard
Capo: 2nd fret

Chords used:
   G D B Asus2 Em C E
e|-3-2-2-0-----0--0-0-----------------------------------------------|
B|-3-3-3-0-----0--1-0-----------------------------------------------|
G|-4-2-4-2-----0--0-1-----------------------------------------------|
D|-5-0-4-2-----2--2-2-----------------------------------------------|
A|-5---2-0-----2--3-2-----------------------------------------------|
E|-3-----------0----0-----------------------------------------------|

 Intro:
e|------------------------------------------------------------------|
B|-------------------------------------------------------------0h2--|
G|---------------4-4---2-2---2-2--------------------2-2-2--2---2----|
D|0-0-0---2-4----5-5---0-0---0-0ó--x3---0-0-0--2-4--2-2-2--2--------|
A|---------------5---5-----0------------------------0----0---0------|
E|------------------------------------------------------------------|


e|--------------------------------------------------------|
B|--------------------------------------------------------|
G|-2------------------------------------------------------|
D|-2------------------------------------------------------|x2
A|---0----------------------------------------------------|
E|--------------------------------------------------------|
[ Tab from: http://www.guitaretab.com/j/jason-mraz/293183.html ]
Verse:
e|------------------------------------------------------------------|
B|-------------------------------------------------------------0h2--|
G|---------------4-4---2-2---2-2--------------------2-2-2--2---2----|
D|0-0-0---2-4----5-5---0-0---0-0ó--x3---0-0-0--2-4--2-2-2--2--------|
A|---------------5---5-----0------------------------0----0---0------|
E|------------------------------------------------------------------|


e|--------------------------------------------------------|
B|--------------------------------------------------------|
G|-2------------------------------------------------------|
D|-2------------------------------------------------------| x2
A|---0----------------------------------------------------|
E|--------------------------------------------------------|

Chorus: G, D, B, Asus2, G, D, Asus2
Verse: x1
Chorus
Bridge: Em, Asus2, Em, Asus2, C, E, C, E, D
Chorus
Verse:x1
Chorus: x3
Outro: G, D, G, D, G and end on D






This is how I play it in the video but Iíve found a different way to play the verses and 
intro that sounds a bit closer to what heís playing:

e|------------------------------------------------------------------|
B|------------------------------------------3-3---3-3--2------------|
G|-----------4-4---2-2---2------------------2----------2------------|
D|-0-0-0-2-4-5-----0---------x3--0-0-4-2-0--0---0----0--------------|
A|-----------5---5-----0--------------------------------------------|
E|------------------------------------------------------------------|


e|------------------------------------------------------------------|
B|------------------------------------------------------------------|
G|------------------------------------------------------------------|
D|------------------------------------------------------------------|
A|------------------------------------------------------------------|
E|------------------------------------------------------------------|




************************************
| /   slide up
| \   slide down
| h   hammer-on
| p   pull-off
| ~   vibrato
| +   harmonic
| x   Mute note
| b   Bend
| pb  Pre-bend
| br  Bend release
| pbr Pre-bend release
| brb Bend release bend
************************************
Related for I Wont Give Up tab
I Wont Give Up chords by Jason Mraz