Song name
# A B C D E F G H I J K L M N O P Q R S T U V W X Y Z

Jason Mraz - The World As I See It tab

Highlighted       Show chord diagrams
Jason Mraz the world as I see it                 H=hold note a little longer

intro
                 H                            H
e|---------------------------------------------------------------------------|
B|---3-----------3--------------3-------------3------------------------------|
G|------3------------3--------------3---------------3------------------------|
D|----------5-------------5--------------5----------------5------------------|
A|---------------------------------------------------------------------------|
E|---------------------------------------------------------------------------|
                    H                            H
e|---------------------------------------------------------------------------|
B|----1-------------1-------------1--------------1---------------------------|
G|---------2-------------2--------------2--------------2---------------------|
D|--------------3-------------3--------------3----------------3--------------|
A|---------------------------------------------------------------------------|
E|---------------------------------------------------------------------------|-
                                                    x4


x4
Cm                            Bb
The world as I see it, is a remarkable place
Cm                                Bb
A beautiful house in a forest, of stars in outer space.
 Cm                            F                         Bb
 From a birds eye view, I can see it has a well-rounded personality
Cm                            F             Gm
 From a birds eye view, I can see we are family.


Cm
Itís not hard for me to love you
 Hard for me to love you
Bb
 No itís not a difficult thing.
           Cm
 Itís not hard for me to love you
                           Bb
 Hard for me to love you Because you are the world to me.


Cm                            Bb
 Yeah the world as I see it, is a remarkable place
Cm                                Bb
 Every man makes a difference And every mothers child is a saint
 Cm                            F                         Bb
From a birds eye view I can see, we are spiralling down in gravity
 Cm                            F             Gm
From a birds eye view I can see, you are just like me.


Cm
 Itís not hard for me to love you Hard for me to love you
Bb
No itís not a difficult thing.
Cm
Itís not hard for me to love you Hard for me to love you
Bb
Unconditionally.

Cm
 No itís not hard for me to love you Hard for me to love you
Bb
No itís not a difficult thing.
Cm
Itís not hard for me to love you Hard for me to love you
Bb
Because you are the world to me.


You are the mountain, you are the rock
 You are the cord and youíre the spark
 You are the eagle, you are the lark
 You are the world and youíre remarkable


 Youíre the ocean eating the shore
 You are the calm inside the storm
 Youíre every emotion, you can endure
 You are the world, the world is yours.


 (Itís not hard for me to love you Hard for me to love you
 No itís not a difficult thing. Itís not hard for me to love you Hard for me to 
love you Unconditionally)


 No itís not hard for me to love you
 Hard for me to love you No itís not a difficult thing.
 Itís not hard for me to love you Hard for me to love you
 Unconditionally.


 No itís not hard for me to love you Hard for me to love you
 No itís not a difficult thing. Itís not hard for me to love you Hard for me to love you
Because you are the world to me.


 Yeah the world as I see it, is a remarkable place
Tap to rate this tab
 
# A B C D E F G H I J K L M N O P Q R S T U V W X Y Z