Song name
# A B C D E F G H I J K L M N O P Q R S T U V W X Y Z

Jason Mraz - They Shaped My Life tab

This version is from http://www.youtube.com/watch?v=6WgcZmHil-E

I|---------------------|
N|---------------------|   
T|---1---4-4/6-4---2-1-|   
R|---2---6-6/8-6---4-2-|   
O|---2---6-6/8-6---4-2-|    
 |-0-0-4-4-4/6-4-4-2-0-|   

1|---------------------|
V|---------------------|   
E|-1-----4-----2-----1-|2x   
R|-2-----6-----4-----2-|  
S|-2-----6-----4-----2-|    
E|-0-----4-----2-----0-|

B|---------------------|
R|---------------------|   
I|-1-----4-----6-----1-|   
D|-2-----6-----7-----2-|  
G|-2-----6-----7-----2-|    
E|-0-----4-----5-----0-|

C|---------------------|
H|---------------------|   
O|-1-----4-----2-----1-|   
R|-2-----6-----4-----2-|  
U|-2-----6-----4-----2-|    
S|-0-----4-----2-----0-|

I|-----------------------------------|
N|-----------------------------------|   
L|-----1-----4-4/6-4-----2---1-------|   
U|-----2-----6-6/8-6-----4---2-----2-|   
D|---2-2---6-6-6/8-6---4-4---2-2h4---|    
E|-0-----4---4-4/6-4-2---2-0-0-------|   

I|---------------------------------|
N|---------------------------------|   
L|-----1-----4-4/6-4-----2-----1-1-|   
U|-----2-----6-6/8-6-----4-----2-2-|  
D|---2-2---6-6-6/8-6---4-4---2-2-2-|  
E|-0-----4---4-4/6-4-2---2-0---0-0-| 

2|---------------------|
V|---------------------|   
E|-1-----4-----2-----1-|2x   
R|-2-----6-----4-----2-|  
S|-2-----6-----4-----2-|    
E|-0-----4-----2-----0-|

B|---------------------|
R|---------------------|   
I|-1-----4-----6-----1-|   
D|-2-----6-----7-----2-|  
G|-2-----6-----7-----2-|    
E|-0-----4-----5-----0-|

C|---------------------|
H|---------------------|   
O|-1-----4-----2-----1-|2x   
R|-2-----6-----4-----2-|  
U|-2-----6-----4-----2-|    
S|-0-----4-----2-----0-|

I|-4-----2-----5-----4-|
N|-5-----2-----5-----4-|
L|-6-----3-----6-----5-|2x
U|-6-----4-----7-----6-| 
D|-4-----4-----7-----6-| 
E|-4-----2-----5-----4-| 

S|---------------------------------------------------------------|
O|---------------------------------------------------------------|
L|-1-2-3-4-4-4-4/6-4---2---1---------1---4-4-4/6-4---2---1---1-1-|
O|-2-4-5-6-6-6-6/8-6---4---2-----2---2---6-6-6/8-6---4---2---2-2-|
 |-2-4-5-6-6-6-6/8-6---4---2-2h4-----2---6-6-6/8-6---4---2---2-2-|
 |-0-2-3-4-4-4-4/6-4-2-2-0-0-------0-0-4-4-4-4/6-4-2-2-0-0-0-0-0-|

4|---------------------|
V|---------------------|   
E|-1-----4-----2-----1-|2x   
R|-2-----6-----4-----2-|  
S|-2-----6-----4-----2-|    
E|-0-----4-----2-----0-|

B|---------------------|
R|---------------------|   
I|-1-----4-----2-----1-|   
D|-2-----6-----4-----2-|  
G|-2-----6-----4-----2-|    
E|-0-----4-----2-----0-|

C|---------------------|
H|---------------------|   
O|-1-----4-----2-----1-|   
R|-2-----6-----4-----2-|  
U|-2-----6-----4-----2-|    
S|-0-----4-----2-----0-|

4|-1-----5-----3-----1-|
V|-1-----5-----3-----1-|
E|-2-----5-----3-----2-|2x
R|-3-----7-----5-----3-|
S|-3-----7-----5-----3-|
E|-1-----5-----3-----1-|

B|-1-----5-----3-----1-|
R|-1-----5-----3-----1-|
I|-2-----5-----3-----2-|
D|-3-----7-----5-----3-|
G|-3-----7-----5-----3-|
E|-1-----5-----3-----1-|

C|-1-----5-----3-----1-|
H|-1-----5-----3-----1-|
O|-2-----5-----3-----2-|2x
R|-3-----7-----5-----3-|
U|-3-----7-----5-----3-|
S|-1-----5-----3-----1-|

I|-5-----3-----6-----5-|
N|-6-----3-----6-----6-|
L|-5-----4-----7-----7-|2x
U|-7-----5-----8-----7-|
D|-5-----5-----8-----5-|
E|-5-----3-----6-----5-|

S|-------------------------------------------------|
O|-------------------------------------------------|   
L|---1---4-4/6-4---2---1---------1---4-4/6-4---2-1-|   
O|---2---6-6/8-6---4---2-----2---2---6-6/8-6---4-2-|   
 |---2---6-6/8-6---4---2-2h4-----2---6-6/8-6---4-2-|    
 |-0-0-4-4-4/6-4-4-2-0-0-------0-0-4-4-4/6-4-4-2-0-|

4|-1-----5-----3-----1-|
V|-1-----5-----3-----1-|
E|-2-----5-----3-----2-|2x
R|-3-----7-----5-----3-|
S|-3-----7-----5-----3-|
E|-1-----5-----3-----1-|

B|-1-----5-----3-----1-|
R|-1-----5-----3-----1-|
I|-2-----5-----3-----2-|
D|-3-----7-----5-----3-|
G|-3-----7-----5-----3-|
E|-1-----5-----3-----1-|

C|-1-----5-----3-----1-|
H|-1-----5-----3-----1-|
O|-2-----5-----3-----2-|3x
R|-3-----7-----5-----3-|
U|-3-----7-----5-----3-|
S|-1-----5-----3-----1-|
Tap to rate this tab
# A B C D E F G H I J K L M N O P Q R S T U V W X Y Z