Song name
# A B C D E F G H I J K L M N O P Q R S T U V W X Y Z

Jason Mraz - I Wont Give Up tab

Jason Mraz
“I wont give up (on us)”

Capo 2nd fret
All frets relative to capo

 G(bar)   D	  A	       Bm
e|---3----2----------2---------------------------------|
B|---3----3----2-----3---------------------------------|
g|---4----2----2-----4---------------------------------|
d|---5---------2-----4---------------------------------|
a|---5---------------2---------------------------------|
E|---3-------------------------------------------------|



Intro


e|--------------------------------------------------|
B|--------------------------------3-----------------|
G|-------------(4)----------------------------------|
D|--0-00-2-4-4/5-4---0-00-2-4-4/5---4---0-00-2-4-4/5|
A|--------------------------------------------------|
E|--------------------------------------------------|

e|--------------------------------------------------|
B|----------------2-2-2-2-2-2-2-0-------------------|
G|----------------2-2-2-2-2-2-2-2-------------------|
D|-4-4-44-4/2-0-0h2-2-2-2-2-2-2-2-------------------|
A|--------------------------------------------------|
E|--------------------------------------------------|

Repeat intro through verse


Chorus
	     	G(Bar)  D
I won't give up on us
			Bm			A
Even if the skies get rough
			G(Bar)		D
I'm giving you all my love
				A
I'm still looking up

All verses and choruses are the same. Sorry haven’t figured out the bridge.
Tap to rate this tab
# A B C D E F G H I J K L M N O P Q R S T U V W X Y Z