Song name
# A B C D E F G H I J K L M N O P Q R S T U V W X Y Z

Jason Mraz - 93 Million Miles tab

Jason Mraz's new song and my first tab! I definitely wasn't sure about some of the 
chords during the bridge. If anyone can help me out, that would be great! Other than that, it 
sounds pretty good to me. Enjoy!

Email: fpark83@msn.com


Intro
e|--2---0---0---2----------------------------------------------------------|
B|--3---3---0---3----------------------------------------------------------|
G|--2---0---0---2----------------------------------------------------------|
D|------4---2--------------------------------------------------------------|
A|------5---2--------------------------------------------------------------|
D|------5---2--------------------------------------------------------------|

Verse 1
e|--2---0---0---2---0---0---0---0------------------------------------------|
B|--3---3---0---3---3---0---3---2------------------------------------------|
G|--2---0---0---2---0---0---2---2------------------------------------------|
D|------4---2-------4---2---2---2------------------------------------------|
A|------5---2-------5---2---0---0------------------------------------------|
D|------5---2-------5---2---X---X------------------------------------------|

Just know...
e|--0---0---0---2------------------------------------------------------|
B|--3---0---2---3------------------------------------------------------|
G|--0---0---2---2------------------------------------------------------|
D|--4---2---2----------------------------------------------------------|
A|--5---2---X----------------------------------------------------------|
D|--5---2---X----------------------------------------------------------|

Ooooh...           Ooooh...
e|--0---0---2------0---0------------------------------------------------|
B|--3---0---3------3---0------------------------------------------------|
G|--0---0---2------0---0------------------------------------------------|
D|--4---2----------4---2------------------------------------------------|
A|--5---2----------5---2------------------------------------------------|
D|--5---2----------5---2------------------------------------------------|

Verse 2
e|--2---0---0---2---0---0---0---0------------------------------------------|
B|--3---3---0---3---3---0---3---2------------------------------------------|
G|--2---0---0---2---0---0---2---2------------------------------------------|
D|------4---2-------4---2---2---2------------------------------------------|
A|------5---2-------5---2---0---0------------------------------------------|
D|------5---2-------5---2---X---X------------------------------------------|

Just know...
e|--0---0---0---0---2------------------------------------------------------|
B|--3---0---3---2---3------------------------------------------------------|
G|--0---0---0---2---2------------------------------------------------------|
D|--4---2---4---2----------------------------------------------------------|
A|--5---2---5---X----------------------------------------------------------|
D|--5---2---5---X----------------------------------------------------------|

Ooooh...           Ooooh...
e|--0---0---2------0---0---0--------------------------------------------|
B|--3---0---3------3---0---2--------------------------------------------|
G|--0---0---2------0---0---2--------------------------------------------|
D|--4---2----------4---2---2--------------------------------------------|
A|--5---2----------5---2---X--------------------------------------------|
D|--5---2----------5---2---X--------------------------------------------|

(Bridge)
You can always get back...  Every road is a slippery slope...
e|--2---0---0---------------2---0---2---0---0---X---X--------------|
B|--3---2---3---------------2---3---2---3---3---X---X--------------|
G|--4---3---0---------------2---0---2---0---0---5---5--------------|
D|--4---4---4---------------0---4---0---4---4---5---5--------------|
A|--2---X---5---------------4---5---4---5---5---7---X--------------|
D|--X---X---5---------------4---5---4---5---6---7---8--------------|


Just know...
e|--0---0---0---0---2------------------------------------------------------|
B|--3---0---3---2---3------------------------------------------------------|
G|--0---0---0---2---2------------------------------------------------------|
D|--4---2---4---2----------------------------------------------------------|
A|--5---2---5---X----------------------------------------------------------|
D|--5---2---5---X----------------------------------------------------------|

Ooooh...           Ooooh...
e|--0---0---2------0---0---2--------------------------------------------|
B|--3---0---3------3---0---3--------------------------------------------|
G|--0---0---2------0---0---2--------------------------------------------|
D|--4---2----------4---2------------------------------------------------|
A|--5---2----------5---2------------------------------------------------|
D|--5---2----------5---2------------------------------------------------|

Ooooh...    You can always come back home
e|--0---0---0---2--------------------------------------------|
B|--3---0---2---3--------------------------------------------|
G|--0---0---2---2--------------------------------------------|
D|--4---2---2------------------------------------------------|
A|--5---2---0------------------------------------------------|
D|--5---2---X------------------------------------------------|

93 million miles...
e|--2---0---0---2---------------------------------------------|
B|--3---3---0---3---------------------------------------------|
G|--2---0---0---2---------------------------------------------|
D|------4---2-------------------------------------------------|
A|------5---2-------------------------------------------------|
D|------5---2-------------------------------------------------|
Tap to rate this tab
# A B C D E F G H I J K L M N O P Q R S T U V W X Y Z