Song name
# A B C D E F G H I J K L M N O P Q R S T U V W X Y Z

Jason Mraz - San Disco Reggaefornia tab

Tabs by @elvisfinol

BASS

Intro
---5---------5-----------------5--33-|
----3-5---------3--5-5-3-5--3--------|
-------------------------------------|
-------------------------------------|

---5---------5-----------------5-3-3-|
----3-5---------3--5-5-3-5--3--------|
-------------------------------------|
-------------------------------------|

---5---------5-----------------5--33-|
----3-5---------3--5-5-3-3-----------|
------------------------3------------|
-------------------------------------|

---5---------5-----------------5--33-|
----3-5---------3--5-5-3-5--3--------|
-------------------------------------|
-------------------------------------|

Verse 1
---5----------3--5--5---5-----------|
----3-5----3----------3-------------|
------------------------------------|
------------------------------------|

--------------3--6-5----------------|
------5--3--------------------------|
------------------------------------|
------------------------------------|

--------------3--5------------------|
------5--3--------------------------|
------------------------------------|
------------------------------------|

Pre chorus
--------------6--5-------3-------5--|
------5--3--------------------------|
------------------------------------|
------------------------------------|

Choir

---5---------5-----------------5--33-|
----3-5---------3--5-5-3-5--3--------|
-------------------------------------|
-------------------------------------|

---5---------5-----------------5-3-3-|
----3-5---------3--5-5-3-5--3--------|
-------------------------------------|
-------------------------------------|

---5---------5------------------5-33-|
----3-5---------3--5-5-3----3--------|
------------------------3------------|
-------------------------------------|

---5---------5-----------------5--33-|
----3-5---------3--5-5-3-5--3--------|
-------------------------------------|
-------------------------------------|

Verse 2
--------------6--5------------------|(x2)
------5--3--------------------------|
------------------------------------|
------------------------------------|

5----------------5------3--------5--|
--3--5-5-3-5--3---------------------|
------------------------------------|
------------------------------------|

--------------6--5------------------|
------5--3--------------------------|
------------------------------------|
------------------------------------|

Pre Chorus

--3-------5---------3--------5------|
------------------------------------|
------------------------------------|
------------------------------------|

Choir
---5---------5-----------------5--33-|
----3-5---------3--5-5-3-5--3--------|
-------------------------------------|
-------------------------------------|

---5---------5-----------------5-3-3-|
----3-5---------3--5-5-3-5--3--------|
-------------------------------------|
-------------------------------------|

---5---------5------------------5-33-|
----3-5---------3--5-5-3----3--------|
------------------------3------------|
-------------------------------------|

---5---------5-----------------5-3-3-|
----3-5---------3--5-5-3-5--3--------|
-------------------------------------|
-------------------------------------|

---5---------5------------------5-33-|
----3-5---------3--5-5-3----3--------|
------------------------3------------|
-------------------------------------|

-------3---5-6--6--6--66------------|
------------------------------------|
------------------------------------|
------------------------------------|

Verse 4

--------------5----------------5--33-|
----------------3--5-5-3-5--3--------|
-------------------------------------|
-------------------------------------|

---5---------5-----------------5-3-3-|
----3-5---------3--5-5-3-5--3--------|
-------------------------------------|
-------------------------------------|

---5---------5-----------------5--33-|
----3-5---------3--5-5-3-5--3--------|
-------------------------------------|
-------------------------------------|

---5---------5-----------------5-3-3-|
----3-5---------3--5-5-3-5--3--------|
-------------------------------------|
-------------------------------------|

------------------------------------|
-----5------------------------------|
------------------------------------|
------------------------------------|

Brigde
------------------------------------|
---------------------15-1517--------|
------15-15-1514-12-----------------|
------------------------------------|

---5--------------------------------| Min 2:49
----3-5-----------------------------|
------------------------------------|
------------------------------------|

-------3---5---6---8----------------| Min 2:58
------------------------------------|
------------------------------------|
------------------------------------|

Choir

---5---------5-----------------5--33-|
----3-5---------3--5-5-3-5--3--------|
-------------------------------------|
-------------------------------------|

---5---------5-----------------5-3-3-|
----3-5---------3--5-5-3-5--3--------|
-------------------------------------|
-------------------------------------|

---5---------5------------------5-33-|
----3-5---------3--5-5-3----3--------|
------------------------3------------|
-------------------------------------|

---5---------5-----------------5--33-|
----3-5---------3--5-5-3-5--3--------|
-------------------------------------|
-------------------------------------|

---5---------5-----------------5--33-|
----3-5---------3--5-5-3-5--3--------|
-------------------------------------|
-------------------------------------|

------5------5-----------------5-3-3-|
-------3-5------3--5-5-3-5--3--------|
-------------------------------------|
-------------------------------------|

---5---------5------------------5-33-|
----3-5---------3--5-5-3----3--------|
------------------------3------------|
-------------------------------------|

---5---------5-----------------5--33-|
----3-5---------3--5-5-3-5--3--------|
-------------------------------------|
-------------------------------------|

Salsa Min 3:45

-------------------------------------| (x4)
------5-0-5--------5------5---5------|
--------------7-5----5-----------5-7-|
-------------------------------------|

Choir
---5---------5-----------------5--33-|
----3-5---------3--5-5-3-5--3--------|
-------------------------------------|
-------------------------------------|

---5---------5-----------------5-3-3-|
----3-5---------3--5-5-3-5--3--------|
-------------------------------------|
-------------------------------------|

---5---------5------------------5-33-|
----3-5---------3--5-5-3----3--------|
------------------------3------------|
-------------------------------------|

---5---------5-----------------5--33-|
----3-5---------3--5-5-3-5--3--------|
-------------------------------------|
-------------------------------------|

End Min 4:20
-------------------------------------| (x4)
------5-0-5--------5------5---5------|
--------------7-5----5-----------5-7-|
-------------------------------------|
Tap to rate this tab
# A B C D E F G H I J K L M N O P Q R S T U V W X Y Z